Oops, an error
Loading. Please wait.

Baila Para Mí Bass

50 views 1 this week
no commentswrite comment
1 2 3 4 5
3 more votes to show rating
add to favorites
×
Save as Personal and add changes to this tab that will be seen only by you. Learn more ›
×
You can save this tab as Personal to edit and correct it or add notes. All changes will be seen only by you. Learn more »
save as personal
new!
launch autoscroll
font size
0
reset
guitar tuner
Autoscroll
slow
fast
+/-
esc
set tempo
stop
Intro
    x4   x4
E|--5--|--4-|-------|--7------7--|
A|---7-|-4--|-55-55-|-7--79754---| x2
D|-----|----|-------|------------|
G|-----|----|-------|------------|

Baila para mi
    x4   x4   x4
E|--5--|--4-|--5-|--7------7--|
A|---7-|-4--|-5--|-7--79754---|
D|-----|----|----|------------|
G|-----|----|----|------------|

                   x3
E|--5--|--4-|--5-|--7-|-----|
A|---7-|-4--|-5--|-7--|-76--|
D|-----|----|----|----|-----|
G|-----|----|----|----|-----|

Se volvio
   x4   x4   x4    x2
E|--5-|-5--|--5-|--7-|----7--|
A|-5--|--7-|-5--|-7--|-754---|
D|----|----|----|----|-------|
G|----|----|----|----|-------|

Intro
    x4   x4
E|--5--|--4-|-------|--7------7--|
A|---7-|-4--|-55-55-|-7--79754---| x2
D|-----|----|-------|------------|
G|-----|----|-------|------------|

Baila para mi
    x4   x4   x4
E|--5--|--4-|--5-|-----------|
A|---7-|-4--|-5--|-79--------|
D|-----|----|----|---679-----|
G|-----|----|----|------679--|

    x2   x2   x4   x4
E|--5--|--5-|--4-|--5-|--7------7--|
A|---7-|-7--|-4--|-5--|-7--79754---|
D|-----|----|----|----|------------|
G|-----|----|----|----|------------|

Se volvio
   x4   x4   x4
E|--5-|-5--|--5-|--7-----7--|
A|-5--|--7-|-5--|-7-79754---|
D|----|----|----|-----------|
G|----|----|----|-----------|

Intro
    x4   x4
E|--5--|--4-|-------|--7------7--|
A|---7-|-4--|-55-55-|-7--79754---| x2
D|-----|----|-------|------------|
G|-----|----|-------|------------|

Se volvio
   x4   x4   x4
E|--5-|-5--|--5-|--7-----7--|
A|-5--|--7-|-5--|-7-79754---|
D|----|----|----|-----------|
G|----|----|----|-----------|

Baila para mi

    x4    x4
E|--5--|--9--|
A|---7-|-9---| x4
D|-----|-----|
G|-----|-----|

baila para mi
E|--55-55-5--|
A|-----------|
D|-----------|
G|-----------|

atte. miauricio gatolar
Suggest correction
Give kudos to tab author, rate the tab!
1 2 3 4 5
comments
print report bad tab
guest
Wanna post a correction for this tab? Suggest correction