Oops, an error
Loading. Please wait.

Canción Escondida Tab

36 views 1 this week
no commentswrite comment
1 2 3 4 5
3 more votes to show rating
add to favorites
launch autoscroll
font size
0
reset
how to read this tab
guitar tuner
×
Best way to learn
"Canción Escondida"
Autoscroll
slow
fast
+/-
esc
set tempo
stop
A Darle!!!

 C                 D                 G        D        Em
           Desaparece                aparece y la vuelvo a perder.
||-----------------|-----------------|-3---------------|-0---------------||
||-3---------------|-----------------|-----------------|-----------------||
||-----------------|-0---------------|---------0-------|-----------------||
||---0---0-----0---|---2---2-----2---|---0---0---2---2-|---0---0-----0---||
||-----1-----1---1-|-----3-----3---3-|-----3-------3---|-----0-----0---0-||
||---------0-------|---------2-------|-----------------|---------0-------||


 C                 D                 G        D        Em
           Como explicarle           lo que nunca nos...         Miran al    
||-----------------|-----------------|-3---------------|-0---------------||
||-3---------------|-----------------|-----------------|-----------------||
||-----------------|-0---------------|---------0-------|-----------------||
||---0---0-----0---|---2---2-----2---|---0---0---2---2-|---0---0-----0---||
||-----1-----1---1-|-----3-----3---3-|-----3-------3---|-----0-----0---0-||
||---------0-------|---------2-------|-----------------|---------0-------||

 C                 D                 G        D        Em
  cielo            y sus angeles     y sus angeles nunca se ven.
||-----------------|-----------------|-3---------------|-0---------------||
||-3---------------|-----------------|-----------------|-----------------||
||-----------------|-0---------------|---------0-------|-----------------||
||---0---0-----0---|---2---2-----2---|---0---0---2---2-|---0---0-----0---||
||-----1-----1---1-|-----3-----3---3-|-----3-------3---|-----0-----0---0-||
||---------0-------|---------2-------|-----------------|---------0-------||

 C                 D                 G        D        Em
           Quiero decirle            que por siempre sera mi mujer. Quiero
||-----------------|-----------------|-3---------------|-0---------------||
||-3---------------|-----------------|-----------------|-----------------||
||-----------------|-0---------------|---------0-------|-----------------||
||---0---0-----0---|---2---2-----2---|---0---0---2---2-|---0---0-----0---||
||-----1-----1---1-|-----3-----3---3-|-----3-------3---|-----0-----0---0-||
||---------0-------|---------2-------|-----------------|---------0-------||

 C                 D                 G                       G (Rasgueo)
 decirle           que por siempre sera mi mujer.
||-----------------|------------------------|-3--------------3-||
||-3---------------|------------------------|----------------2-||
||-----------------|-0----------------------|----------------0-||
||---0---0-----0---|----2-----2--------2----|----0-----0-----0-||  
||-----1-----1---1-|-------3--------3-----3-|-------3--------3-||
||---------0-------|-------------2----------|-------------0--3-||
                    (A partir de aqui disminuyes el ritmo)
Suggest correction
Give kudos to tab author, rate the tab!
1 2 3 4 5
comments
print report bad tab
guest
You may want to rate the tab now too:
select rating
Wanna post a correction for this tab? Suggest correction