Oops, an error
Loading. Please wait.

El Demonio (Esta En Esa Mujer) Tab

22 views 1 this week
no commentswrite comment
1 2 3 4 5
3 more votes to show rating
add to favorites
launch autoscroll
font size
0
reset
how to read this tab
guitar tuner
×
Best way to learn
"El Demonio (esta En Esa Mujer)"
Autoscroll
slow
fast
+/-
esc
set tempo
stop
E|-----3/5~~~~~~~-|                    Em
No te pares enfrente de mi no me provoques
F                              C
Tengo heridas abiertas que quiero cerrar
                                   B|--5-5^--5h3-----|
                                   G|------------4p5-|
Am                              Em
No existe poder mi razón para que me detengas
F                                  C
No tengo motivos ni ganas de estar junto a vos
                                   B|--5^-5^-5/8-----|
G                                    C
Se que te amé con exceso y hoy siento el quebranto
                                   B|-11/13-8-6-5--6/8--|
G                           C
que no podrá remediar ninguna infusión
Am                        Em
una facilidad grande para las lágrimas
F                               G
siento en mi ánimo síntomas de enfermedad
                                 B|--6/8----|

      C                                   G
El demonio está en esa mujer y no puedo dejar de pensar
                      B|---5----------------6/8-----|
                      G|-----5----------------------|
     C                                   G
El demonio está en esa mujer y no puedo parar de tomar
                        B|--11p13--------------------------|
                        G|---------12----------12/14-14/10-|
F                               G
siento en mi ánimo síntomas de enfermedad
                                    |----10/12-----|
Solo:

e|-10/12----------12-10-12-10--|-12-10--------12--12-10-----------|
B|-------10~~-10---------------|-------13--13------------13-------|
G|-----------------------------|-----------------------------12~~-|

e|-10/12----------12-10-12-10-------|-12-10--------12--12-10-----15~~~-|
B|-------10~~-10---------------13-12|-------13--13------------13-------|

      C                                   G
El demonio está en esa mujer y no puedo dejar de pensar
     C                                   G
El demonio está en esa mujer y no puedo parar de tomar
      C                                   G
El demonio está en esa mujer y no puedo dejar de pensar
                      B|---5----------------6/8-----|
                      G|-----5----------------------|
     C                                   G
El demonio está en esa mujer y no puedo parar de tomar
                        B|--11p13--------------------------|
                        G|--------------------12/14--------|
F                               G
siento en mi ánimo síntomas de enfermedad
                                 B|-------12p15--------|
                                 G|-14/16--------12/14-|
F                              G
siento en mi ánimo síntomas de enfermedad
                             |--12/15--------------------------|
                             |--------14/16--12-15-12-12-15^---|
F                              G
siento en mi ánimo síntomas de enfermedad..... (lo demas se improvisa)

Esta Tablatura va dedicada para mi Nena Dzoara de San Cristobal de las 
Casas, Chiapas.
Suggest correction
Give kudos to tab author, rate the tab!
1 2 3 4 5
comments
print report bad tab
guest
You may want to rate the tab now too:
select rating
Wanna post a correction for this tab? Suggest correction