Oops, an error
Loading. Please wait.

Hoy Estoy Peor Que Ayer Tab

27 views 3 this week
no commentswrite comment
1 2 3 4 5
3 more votes to show rating
add to favorites
launch autoscroll
font size
0
reset
how to read this tab
guitar tuner
×
Best way to learn
"Hoy Estoy Peor Que Ayer"
Autoscroll
slow
fast
+/-
esc
set tempo
stop
Intro:


e-----------8----------------------------------
B--8-----8-----10-----12-12-12-12--10--10------
G----9-9-----------------------------------12--
D----------------------------------------------
A----------------------------------------------
E----------------------------------------------


e--------------------
B-10-----------------
G----12-9------------
D--------------------
A--------------------
E--------------------

e-----8--------------------------------
B---8----10---12-12-12-12-----12---17--
G-9------------------------14----------
D--------------------------------------
A--------------------------------------
E--------------------------------------


hay una parte que va asi:

e-12----------12---------------------------------
B----13----13-------15-12-13---------------------
G-------12---------------------------------------
D------------------------------------------------
A------------------------------------------------
E------------------------------------------------

e-12----------12-------15--14-------------------
B----13----13------15---------------------------
G-------12--------------------------------------
D-----------------------------------------------
A-----------------------------------------------
E-----------------------------------------------


ARRIBA MOSCA SOS UNA GRAN BANDA!

      VAMOS DEPORTIVO CALI! VAMOS VERDE Y BLANCO!

      ARRIBA EL AMARILLO, AZUL Y ROJO ¡COLOMBIA!

          SOMOS EL PAIS MAS BELLO DEL MUNDO   
                 NO LO JUZGUEN MAL   

                  
                   C O L O M B I A
                         E N 
                       P  A  Z
Suggest correction
Give kudos to tab author, rate the tab!
1 2 3 4 5
comments
print report bad tab
guest
You may want to rate the tab now too:
select rating
Wanna post a correction for this tab? Suggest correction