Oops, an error
Loading. Please wait.

Para No Verte Más Tab

version 1
version 1

Whole song

Interactive

185 views 1 this week
no commentswrite comment
1 2 3 4 5
3 more votes to show rating
add to favorites
launch autoscroll
font size
0
reset
how to read this tab
guitar tuner
×
Best way to learn
"Para No Verte Más"
Autoscroll
slow
fast
+/-
esc
set tempo
stop
TAB
     C             Em         Dm
e|---------------------------------------|
B|----8---8-10-8---8--8-10-8--6--6-8-6---|
G|--9---9--------9---9------9--7-------7-|
D|---------------------------------------|
A|-----------------7----------5----------|
D|----8----------------------------------|
    G
e|--------------------------|
B|-----8-----6-----5-----3--|
G|--------------------------|
D|--------------------------|
A|--------------------------|
D|--8-----6-----5-----3-----|
     C            Em          Dm
e|----------------------------------------|
B|----8---8-10-8---8--8-10-8--6---6-8-6---|
G|----9-9--------9-9-9------9-7-7-------7-|
D|----------------------------------------|
A|-----------------7----------5-----------|
D|----8-----------------------------------|
    G                        C
e|---------------------------0---|
B|-----8-----6-----5-----3---1---|
G|---------------------------0---|
D|---------------------------2---|
A|---------------------------3---|
D|--8-----6-----5-----3------3---|

ACORDES
     C     Em    Dm    G    (D#m)
e|---8------7-----5----3------6---
B|---8------8-----6----3------7---
G|---9------9-----7----4------8---
D|---10-----9-----7----5------8---
A|---10-----7-----5----5------6---
E|---8------X-----X----3------6---

ESTA NOTA (D#m) LA PUEDES TOCAR CUANDO MEJOR TE PARESCA, 
DES PUES DE Em Y ANTES DEL Dm, ES COMO UN ADORNITO JEJE

ESTE TAB SE PUEDE TOCAR DURANTE TODA LA CANCION 
(NO LO RECOMIENDO POR QUE VA A ABURRIR), O INTRODUCIRLO 
CUANDO MEJOR LES GUSTE (EN EL CORO O DURANTE ALGUN VERSO 
[NOMAS PA'QUE TIRE BARRA])

          C
Cuando no tengas donde ir
          Em
cuando te sangre la nariz
           Dm
cuando te duela la cabeza
         G
y se termine esa cerveza.
           C
Cuando las alas de tu avion
       Em
se derritan sin razon
           Dm
y el cancer de la soledad
            G
ya se ha matado en la ciudad

Coro:
    C
yo rompere tus fotos
     Em
yo quemare tus cartas
         Dm                 G
para no verte mas, para no verte mas.

Figura de vientos:...
        C
Y si logras sobrevivir
      Em
al refusillo de maldad
       Dm
preguntaras en donde estas
        G
preguntaras que te paso
          C
Me voy a poner a fumar
         Em
sin preocuparme nada mas
             Dm
total ya es tarde pa´ volver
             G
total ya es tarde pa´ soñar.

Tambien se la dedico a mi queridisima Rosa Chisty, no es nada personal
Suggest correction
Give kudos to tab author, rate the tab!
1 2 3 4 5
comments
print report bad tab
guest
You may want to rate the tab now too:
select rating
Wanna post a correction for this tab? Suggest correction