Oops, an error
Loading. Please wait.

Para No Verte Más Tab

version 2
version 2

Whole song

Interactive

128 views 3 this week
no commentswrite comment
1 2 3 4 5
3 more votes to show rating
add to favorites
launch autoscroll
font size
0
reset
how to read this tab
guitar tuner
×
Best way to learn
"Para No Verte Más"
Autoscroll
slow
fast
+/-
esc
set tempo
stop
QUE ONDA RAZA.............

AQUI LES PONGO ESTA TABLATURA DE LA MOSCA,

ES UNA BUENA CANCIÓN Y CRE QUE VALE LA PENA

SACARLA..... BUENO A DARLE....


ESTE ES EL INTRO DE LAS TROMPETAS QUE LLEVA LA CANCIÓN

NO ES TAN DIFICIL NADA MÁS ES QUE SAQUEN LA TABLATURA...


INTRO

       C                      Em                       Dm
e|-----------------------------------|-------------------------|
B|-----8~~~~~-----8--10--8-----8-~~~~|----8--10--8------8~~~~~-|
G|--9----------9------------9--------|-9-------------9---------|
D|-----------------------------------|-------------------------|
A|-----------------------------------|-------------------------|

                     G  F  Em Dm
e|----------------------------------|
B|------8--10--8-----8--------------|
G|---9------------9-----10--9--7----|
D|----------------------------------|
A|----------------------------------|
E|----------------------------------|

       C                      Em                       F
e|-----------------------------------|-------------------------|
B|-----8~~~~~-----8--10--8-----8-~~~~|----8--10--8-------------|
G|--9----------9------------9--------|-9-------------9--10~~~--|
D|-----------------------------------|-------------------------|
A|-----------------------------------|-------------------------|

                       G
e|---------------------15-----|
B|------8--10--8-------15-----|
G|---9------------9-----------|
D|----------------------------|
A|----------------------------|
E|----------------------------|


 C
Cuando no tengas donde ir
       Em
cuando te sangre la nariz
          Dm
cuando te duela la cabeza
           G
y se termine esa cerveza

 C
Cuando las alas de tu avión
         Em         Em - D#m - Dm
se derritan sin razón
      Dm
y el cáncer de la soledad
            G
te haya matado en la ciudad


CORO.
C
Yo romperé tus fotos
        Em
yo quemare tus cartas
          Dm
para no verte más
              G    G-F-Em-Dm
para no verte más (2)


SE REPITE NUEVAMENTE EL INTRO DE LAS TROMPETAS.


AQUI SE VUELVEN A REPETIR LOS MISMOS ACORDES DE LOS VERSOS


Y si logras sobrevivir.........


Me voy a poner a fumar.........


CORO.


Yo romperé......


BUENO RAZA CUALQUIER DUDA QUE TENGAN  LES AGRADEZCO QUE ME LO

HAGAN SABER A MI CORREO vim_4@


¡¡¡¡¡¡VAMOS IZÚCAR DE MATAMOROS, PUEBLA!!!!!!!!!!!.....
                    (___)
                    |>.
                     _||_
Suggest correction
Give kudos to tab author, rate the tab!
1 2 3 4 5
comments
print report bad tab
guest
You may want to rate the tab now too:
select rating
Wanna post a correction for this tab? Suggest correction