Oops, an error
Loading. Please wait.

Patadas En El Corazón Tab

8 views 1 this week
no commentswrite comment
1 2 3 4 5
3 more votes to show rating
add to favorites
launch autoscroll
font size
0
reset
how to read this tab
guitar tuner
Autoscroll
slow
fast
+/-
esc
set tempo
stop
Help us to improve Ultimate-Guitar.com Take our survey!
×

Intro (Vientos)

    G                  Em

e/----------0------------------0-----------------------
B/-0--1--3-----3------0--1--3-----3--------------------
G/-----------------------------------------------------
D/-----------------------------------------------------
A/-----------------------------------------------------
E/-----------------------------------------------------


   C               Am          D
e/-----------------------------------------------------
B/-3-3-3--1-1-1--0-0-0----------0--0--0--1-------------
G/----------------------2--2--0-------------2----------
D/-----------------------------------------------------
A/-----------------------------------------------------
E/-----------------------------------------------------


cuando la cancion sube de tono se puede tocar asi.
o pueden acompañar el coro.

      A                 F#m

e/--------0--2--0-----------0---2---0------------------
B/-2--3---------------2--3-----------------------------
G/-----------------------------------------------------
D/-----------------------------------------------------
A/-----------------------------------------------------
E/-----------------------------------------------------

     D             Bm             E

e/-0-0-0-----------------------------------------------
B/--------3-3-3--2-2-2----------2--2--2--3--0----------
G/----------------------4--4--2------------------------
D/-----------------------------------------------------
A/-----------------------------------------------------
E/-----------------------------------------------------


saludo colombiano!!!!


arriba deportivo cali !!!!

fuerza somos los mejores a pesar de las heridas!!!


pazzz!!!
Suggest correction
Give kudos to tab author, rate the tab!
1 2 3 4 5
comments
print report bad tab
guest
You may want to rate the tab now too:
select rating
Wanna post a correction for this tab? Suggest correction