Oops, an error
Loading. Please wait.

Show Me Please The Way Tab

8 views 1 this week
no commentswrite comment
1 2 3 4 5
3 more votes to show rating
add to favorites
launch autoscroll
font size
0
reset
how to read this tab
guitar tuner
×
Best way to learn
"Show Me Please The Way"
Autoscroll
slow
fast
+/-
esc
set tempo
stop
GUITARRA INTRO.
    G                  Em                   C                           D                  
e----------------------------------------------------------------------------------------
B----------------------------------------------------------------------------------------
G----------------------------------------------------------------------------------------
D----------------------5-5-5-5--4-5--5-4-5--7-7-7-7-7--5--7-7-7-7-7--5--9--7--9--7--9--7-
A--5-5-5-5--7-5--5-7-5-------------------------------------------------------------------
E----------------------------------------------------------------------------------------

REPITE VARIAS VECES.


TROMPETAS INTRO.

     G         Em         C              D         G
e----------------------------------------------------
B--8--7-8-7-8-----------------------------7-----7-8--
G-------------9--7-9-7-9--5---4-5-4-5-7-9---7-9------
D----------------------------------------------------
A----------------------------------------------------
E----------------------------------------------------

              Em          C            D           G
e----------------------------------------------------
B--8--7-8-7-8------------------------------------7-8-
G-------------9--7-9-7-9--5---4-5-4-5---4-5--7-9-----
D-------------------------------------7--------------
A----------------------------------------------------
E----------------------------------------------------


eSPERo lEs sIRvA!!


vIVa cOLOmBiA!!

dEpORtivO cALi!!

pAz Y aMoR!!
Suggest correction
Give kudos to tab author, rate the tab!
1 2 3 4 5
comments
print report bad tab
guest
You may want to rate the tab now too:
select rating
Wanna post a correction for this tab? Suggest correction