Oops, an error
Loading. Please wait.

Todo Pasa Tab

41 views 1 this week
no commentswrite comment
1 2 3 4 5
3 more votes to show rating
add to favorites
launch autoscroll
font size
0
reset
how to read this tab
guitar tuner
Autoscroll
slow
fast
+/-
esc
set tempo
stop
Help us to improve Ultimate-Guitar.com Take our survey!
×
hay un pequeño error en la primer colaboracion!


Comienza Suave y trasforma en una cancion rockera!
Excelente!

Fue el cuarto sencillo del album pero no lo promocionaron
como se debia!


Intro:

PIANO
 
  Gm   Bb Am          D           REPITE 

e--9-10-----------------------9-10-------------13----
B-------11-8-11-10-8-9-10----------11-8-11-10--------
G----------------------------------------------------
D----------------------------------------------------
A----------------------------------------------------
E----------------------------------------------------

e--9-10-----------------------9-10-------------10----
B-------11-8-11-10-8-9-10----------11-8-11-10--------
G----------------------------------------------------
D----------------------------------------------------
A----------------------------------------------------
E----------------------------------------------------

O SI QUIEREN ASI:


   Gm Bb Am      D    REPITE
e----------------------------------------
B----------------------------------------
G----------------------------------------
D----------------------------------3-----
A--4-5----------------4-5----------------
E------6-3-6-5-3-4-5------6-3-6-5--------

e----------------------------------------
B----------------------------------------
G----------------------------------------
D----------------------------------------
A-4-5----------------4-5---------5-------
E------6-3-6-5-3-4-5------6-3-6-5--------
  
TROMPETAS. (3 VECES)

    Gm     Bb        Am       D
e----------------------------10-10--10---------------
B--8-8--8-11-11--11-10-10--10------------------------
G----------------------------------------------------
D----------------------------------------------------
A----------------------------------------------------
E----------------------------------------------------

Gm     Bb        Am       D
e-------------------------10-------------------------
B--8-8--8-11-11--11-10-10----------------------------
G----------------------------------------------------
D----------------------------------------------------
A----------------------------------------------------
E----------------------------------------------------

AL FINAL DE LA CANCION TAMBIEN LO PUEDEN HACER!

1° estrofa

Gm       Bb       Am         
Es fácil decir te quiero 
D          Gm  Bb  Am  D
en tu cama blanda
Gm       Bb        Am
es fácil entre tus piernas 
D           Gm  Bb  Am  D
jurarte amor
Gm       Bb       Am
decir que no tengo miedo 
D          Gm  Bb  Am  D
y estar temblando
Gm        Bb       Am    
jurar que no estoy llorando
D          Gm  Bb  Am  D
cuando te vas.

Precoro:
Cm            Gm
no hay luna llena
F        Bb
en mi vereda 
Cm          Gm
no hay escaleras 
      D  
en tu balcón.


CORO
Gm              
Todo pasa
Bb   Am             D    Gm
Nos acordamos pero todo pasa
Bb       Am         D      Gm  
Nos olvidamos cuando todo pasa
Bb       Am         D      Gm-Bb-Am-D  
Y no dejamos de pedir perdón.
Gm   Bb    Am    D      
Todo pasa, Todo pasa
Gm   Bb    Am    D      
Todo pasa, Todo pasa
Gm   Bb    Am   D      
Todo pasa, Todo pasa
Gm   Bb    Am    D      
Todo todo todo pasa


Gm-Bb-Am-D 

2° Estrofa (lo mismo)
Tu cara se me confunde con otras caras 
la boca se me equivoca con otras bocas 
imágenes de un naufragio en sábanas blancas 
recuerdos de aquella noche en que te dejé.

Precoro:
Yo ya no miento 
si es que te encuentro 
yo ya no miento más 
a mi corazón 

CORO
Gm              
Todo pasa
Bb   Am             D    Gm
Nos acordamos pero todo pasa
Bb       Am         D      Gm  
Nos olvidamos cuando todo pasa
Bb       Am         D         
Y no dejamos de pedir perdón.

guitarra.

Gm-Bb-Am-D       

Gm   Bb    Am    D      
Todo pasa, Todo pasa
Gm   Bb    Am    D      
Todo pasa, Todo pasa
Gm   Bb    Am    D      
Todo pasa, Todo pasa
Gm   Bb    Am    D      
Todo todo todo pasa

Trompeta
Gm-Bb-Am-D  

Gm   Bb    Am    D      
Todo pasa, Todo pasa
Gm   Bb    Am    D      
Todo pasa, Todo pasa
Gm   Bb    Am    D      
Todo pasa, Todo pasa
Gm   Bb    Am    D      
Todo todo todo pasa


LA MEJOR CANCION DE BUENOS MUCHACHOS!! 
DE LAS MEJORES DE LA BANDA!!

ARRIBA COLOMBIA!

aRRIBA DEPORTIVO CALI!!!


PAZZZ Y AMOR

CERO HIPOCRESIA Y GUERRA!!!
Suggest correction
Give kudos to tab author, rate the tab!
1 2 3 4 5
comments
print report bad tab
guest
You may want to rate the tab now too:
select rating
Wanna post a correction for this tab? Suggest correction