Oops, an error
Loading. Please wait.

Todos Tenemos Un Amor Tab

version 1
version 1

Whole song

465 views 1 this week
no commentswrite comment
1 2 3 4 5
3 more votes to show rating
add to favorites
launch autoscroll
font size
0
reset
how to read this tab
guitar tuner
Autoscroll
slow
fast
+/-
esc
set tempo
stop
Help us to improve Ultimate-Guitar.com Take our survey!
×
el requinto del comienzo va asi:


    E -7/9-7-9-7-9-7-9-12-------------
    B --------------------------------
1   G --------------------------------
    D --------------------------------
    A --------------------------------
    E --------------------------------

    E -7/9-7-9-7-9-7------------------
    B ---------------9----------------
    G ---------------11-----------------
2   D --------------------------------
    A --------------------------------
    E --------------------------------

    E -7/9-7-9-7-9-7-9-12----------7-9-7-5--
    B -------------------9-7---7-9----------
3   G -------------------11--9--------------
    D --------------------------------------
    A --------------------------------------
    E --------------------------------------
DESPUES EL 1,ESTE Y POR ULTIMO EL 3

    E -7/9-7-9-7-9-7-15-16-------------
    B --------------------------------
    G --------------------------------
    D --------------------------------
    A --------------------------------
    E --------------------------------

EL OTRO REQUINTO  DE INTERMEDIO ES ASI


    E --------------9----9------------------------------------
    B -------7-9-10--10----12-10-9-7-5-4/5-4/5-4/5-0-2-5-4-2--
    G -6-8-9--------------------------------------------------
    D --------------------------------------------------------
    A --------------------------------------------------------
    E --------------------------------------------------------

    E -16-14-12-14-12-14-16-14-12--------------
    B ----------------------------12--9-12-14--
    G -----------------------------------------
    D -----------------------------------------
    A -----------------------------------------
    E -----------------------------------------

Y EL DE TROMPETAS LUEGO LUEGO DESPUES DE ESTE VA ASI

    E -12-12-12-12-11-9--11-11-11-11-14-12---12-12-12-12-11-9--14-13--
    B ----------------------------------------------------------------
    G ----------------------------------------------------------------
    D ----------------------------------------------------------------
    A ----------------------------------------------------------------
    E ----------------------------------------------------------------
Suggest correction
Give kudos to tab author, rate the tab!
1 2 3 4 5
comments
print report bad tab
guest
You may want to rate the tab now too:
select rating
Wanna post a correction for this tab? Suggest correction