Oops, an error
Loading. Please wait.

Todos Tenemos Un Amor Tab

version 2
version 2

Whole song

200 views 3 this week
no commentswrite comment
1 2 3 4 5
3 more votes to show rating
add to favorites
launch autoscroll
font size
0
reset
how to read this tab
guitar tuner
×
Best way to learn
"Todos Tenemos Un Amor"
Autoscroll
slow
fast
+/-
esc
set tempo
stop
el requinto del comienzo mas o menos va asi:
 
 
      E ------------------------------12
      B --------14-12-14-12-14-12-14----
  1   G --9/13--------------------------
      D --------------------------------
      A --------------------------------
      E --------------------------------

      E -------------------------------- 
      B --------14-12-14-12-14-12-------
      G --9/13---------------------14-13
  2   D --------------------------------
      A --------------------------------
      E --------------------------------

      E ------------------------------12---------------------------------
      B --------14-12-14-12-14-12-14-----12------------------------------
      G --9/13------------------------------13-11----11/13----11/13-11---
  3   D ------------------------------------------14-------14----------11
      A -----------------------------------------------------------------
      E -----------------------------------------------------------------


 DESPUES ES IGUAL PERO CON UN CAMBIO EN LA TAB 2 COMO SE MUESTRA ACONTINUACION


      E ---------------------------15-12---
      B --------14-12-14-12-14-12----------
      G --9/13-----------------------------
      D -----------------------------------
      A -----------------------------------
      E -----------------------------------


Y EL OTRO REQUINTO  DE INTERMEDIO ES ASI

     
      E -------------------9-7-----------------------------------------
      B ----------5-7-9-10-----10-9-7-5-7-5-4-5--4/5--4/5--4--0-2-5-4-2
      G ------6-8------------------------------------------------------
      D --6-8----------------------------------------------------------
      A ---------------------------------------------------------------
      E ---------------------------------------------------------------

      E --16-14-12-14-12----12-14-12---------------
      B -----------------16----------16---9--12--14
      G -------------------------------------------
      D -------------------------------------------
      A -------------------------------------------
      E -------------------------------------------


     espero les guste y si tienen duda en algo escribanme
      bye
Suggest correction
Give kudos to tab author, rate the tab!
1 2 3 4 5
comments
print report bad tab
guest
You may want to rate the tab now too:
select rating
Wanna post a correction for this tab? Suggest correction