Oops, an error
Loading. Please wait.

Todos Tenemos Un Amor Tab

version 3
version 3

Whole song

110 views 1 this week
no commentswrite comment
1 2 3 4 5
3 more votes to show rating
add to favorites
launch autoscroll
font size
0
reset
how to read this tab
guitar tuner
Autoscroll
slow
fast
+/-
esc
set tempo
stop
Help us to improve Ultimate-Guitar.com Take our survey!
×
Bueno, como estaba bastante mal la anterior transcipción la cambié.
Creo que está bastante bien, falta la parte final, cuando tocan las
trompetas, pero lo demás está... salu2


INTRO: en F#m

  1)
e|---9----9---9---9--12--|  ---9----9----9----9------|
B|-/9---12--12--12-------|  -9---12--12---12----9-12-|
G|-----------------------|  -------------------------|

e|------Bis---------------|   -----------------------------|
B|------------------------|   --/9-------r9~--12-----------|
G|------------------------|   ----11--9----------11-9------|
D|------------------------|   -------------------------11--|


  2)
E|---9-----9---9---9--12--|  ---9---9---9------16--12-----|
B|-/9---12--12--12--------|  -9---12--12---12-------------|
G|------------------------|  -----------------------------|

e|------Bis---------------|   -----------------------------|
B|------------------------|   --/9-------r9~--12-----------|
G|------------------------|   ----11--9----------11-9------|
D|------------------------|   -------------------------11--|


Intermedio:  Igual al 2) de la Intro...

  2)
E|---9-----9---9---9--12--|  ---9---9---9------16--12-----|
B|-/9---12--12--12--------|  -9---12--12---12-------------|
G|------------------------|  -----------------------------|

e|------Bis---------------|   -----------------------------|
B|------------------------|   --/9-------9~--12------------|
G|------------------------|   ----11--9----------11-9------|
D|------------------------|   -------------------------11--|


Final:    Bajada en pentatónica de F#m

e|--------------------9---------------------------------------------------|
B|-------------9-10~----12-10-9-------------------------------------------|
G|----------9-11-----------------11-9-11-9--89/89/8-------------9-9-----|
D|------9-11----------------------------------------------11/9-11-----11--|
A|--9-11------------------------------------------------------------------|

e|--16-14-12-14-12--14---16-14-12---------------------------------------|
B|---------------------------------12-------------r12~12~12--14~14~14--|
G|---------------------------------------r13~13~13----------------------|
D|----------------------------------------------------------------------|

Nada, espero que les haya servido, cualquier cosa manden un mail...
Salu2
Suggest correction
Give kudos to tab author, rate the tab!
1 2 3 4 5
comments
print report bad tab
guest
You may want to rate the tab now too:
select rating
Wanna post a correction for this tab? Suggest correction