Oops, an error
Loading. Please wait.

Tranquilo Venancio Tab

18 views 1 this week
no commentswrite comment
1 2 3 4 5
3 more votes to show rating
add to favorites
launch autoscroll
font size
0
reset
how to read this tab
guitar tuner
Autoscroll
slow
fast
+/-
esc
set tempo
stop
Help us to improve Ultimate-Guitar.com Take our survey!
×
tROMPETAS, sAXO, tROmBON!!  SE REPITE TRES VECES DURANTE LA CANCION!


   A   Bm         E           E7       A  
e--------------------------------------------------------
B--------------------------------5--7--5----5------------
G--9-8-7---6-7-6-7--6-7-6-7--6-7-------------------------
D--------------------------------------------------------
A--------------------------------------------------------
E--------------------------------------------------------


   A   Bm            E         E7       A  
e--------------------------------------------------------
B---------------------------------------------10---------
G--9-8-7---6-7-6-7--6-7-6-7--6-7--9----------------------
D------------------------------------9--7----------------
A--------------------------------------------------------
E--------------------------------------------------------


SALUDO COLOMBIANO!!!!!!!!!!

pA'lANTE!

pAZ!
Suggest correction
Give kudos to tab author, rate the tab!
1 2 3 4 5
comments
print report bad tab
guest
You may want to rate the tab now too:
select rating
Wanna post a correction for this tab? Suggest correction