Oops, an error
Loading. Please wait.

Así Eres Tu (Dios) Tab

18 views 1 this week
no commentswrite comment
1 2 3 4 5
3 more votes to show rating
add to favorites
launch autoscroll
font size
0
reset
how to read this tab
guitar tuner
Autoscroll
slow
fast
+/-
esc
set tempo
stop
Help us to improve Ultimate-Guitar.com Take our survey!
×
solo es la parte del intro y el solo

EL INTRO SE TOCA CON PALM MUTE!!
Intro
E--------|     |--------|    |--------|    |--------|
B--------|     |--------|    |--------|    |--------|
G--------|     |--------|    |--------|    |--------|
D------1-|     |------1-|    |------4-|    |------4-|
A----2---|     |----2---|    |----2---|    |----2---|
E--2-----| (x5)|--0-----|(x5)|--4-----|(x5)|--0-----|(x3)


como podre yo encontrar alguien como tu que me haga soñar
E--------|     |--------|    |--------|    |--------|
B--------|     |--------|    |--------|    |--------|
G--------|     |--------|    |--------|    |--------|
D------1-|     |------1-|    |------4-|    |------4-|
A----2---|     |----2---|    |----2---|    |----2---|
E--2-----| (x5)|--0-----|(x5)|--4-----|(x5)|--0-----|(x3)


no eres igual que los demas simplemente con tocarme me haces volar
E--------|     |--------|    |--------|    |--------|
B--------|     |--------|    |--------|    |--------|
G--------|     |--------|    |--------|    |--------|
D------1-|     |------1-|    |------4-|    |------4-|
A----2---|     |----2---|    |----2---|    |----2---|
E--2-----| (x5)|--0-----|(x5)|--4-----|(x5)|--0-----|(x3)


solo
E----------------------------------------------------------------------14-|
B-12-11-12-----12-11-12-14-12-11-12-11-12------12-17-16-14-16----11-12----|
G-------------------------------------------------------------------------|
D-------------------------------------------------------------------------|
A-------------------------------------------------------------------------|
E-------------------------------------------------------------------------|

termina con el intro
Suggest correction
Give kudos to tab author, rate the tab!
1 2 3 4 5
comments
print report bad tab
guest
You may want to rate the tab now too:
select rating
Wanna post a correction for this tab? Suggest correction