Oops, an error
Loading. Please wait.

Ahí Vienes Bass

version 1
version 1

Whole song

Interactive

by Motel
24 views 1 this week
no commentswrite comment
1 2 3 4 5
3 more votes to show rating
add to favorites
×
Save as Personal and add changes to this tab that will be seen only by you. Learn more ›
×
You can save this tab as Personal to edit and correct it or add notes. All changes will be seen only by you. Learn more »
save as personal
new!
launch autoscroll
font size
0
reset
guitar tuner
Autoscroll
slow
fast
+/-
esc
set tempo
stop
OJALA QUE LES GUTE ESTA ROLA LA SAQUE A PETICION DE LEONEL DE COLIMA


 HACE NADA EL BAJO
VERSO 1   EL TIEMPO YA PASO
 ACORDES  F,C
G)--------------------------------------------------------------------
D)--------------------------------------------------------------------
A)--------------3333333333333-----------------------------------------
E)--1------1----------------------------------------------------------

  SALE EL SOL
ACORDES F,C
G)--------------------------------------------------------------------
D)--------------------------------------------------------------------
A)----------------------3333333333333---------------------------------
E)--1------1----1-----------------------------------------------------

   TODO PUEDE SUSEDER SI TU ME CRES
ACORDES  F,C
G)--------------------------------------------------------------------
D)--------------------------------------------------------------------
A)--------------3333333333333-----------------------------------------
E)--1------1----------------------------------------------------------

  TEDO ES NUEVO AL GUNA VES
ACORDES F,C
G)--------------------------------------------------------------------
D)--------------------------------------------------------------------
A)--------------3333333333333-----------------------------------------
E)--1------1----------------------------------------------------------

A QUI VA UN CAMBIO

  TE QUIERO AGRADECER
ACORDES  A,F,C
G)--------------------------------------------------------------------
D)--------------------------------------------------------------------
A)---0----0---------------333333333-----------------------------------
E)-------------1----1-------------------------------------------------

 PUES HOY NO SOY EL MISMO
ACORDES   A,F
G)--------------------------------------------------------------------
D)--------------------------------------------------------------------
A)---0----0-----------------------------------------------------------
E)-------------1----1----1--1-1---------------------------------------


 PRIMER CORO  tu también Uuu see, Uuu see?
ACORDES  C,D,E,F
G)--------------------------------------------------------------------
D)--------------------------------------------------------------------
A)----3333333333-55555555555-7777777777-8888888888--3-----------------
E)--------------------------------------------------------------------

SEREPITE UN PEDASO COMO EL INTRO SI HACER NADA

SIG. VERSO

   A veces respirar costaba demasiado
ACORDES  F,C
G)--------------------------------------------------------------------
D)--------------------------------------------------------------------
A)--------------3333333333333-----------------------------------------
E)--1------1----------------------------------------------------------

  En tus brazos descansé, yo descanse
ACORDES  F,C
G)--------------------------------------------------------------------
D)--------------------------------------------------------------------
A)--------------3333333333333-----------------------------------------
E)--1------1----------------------------------------------------------

  Es que hoy yo se que ya no soy el mismo
  ACORDES  A,F
G)--------------------------------------------------------------------
D)--------------------------------------------------------------------
A)---0----0-----------------------------------------------------------
E)-------------1----1----1--1-1-1-------------------------------------


CORO  tu también Uuu see, Uuu see?
ACORDES   C,D,E,F
G)--------------------------------------------------------------------
D)--------------------------------------------------------------------
A)----3333333333-55555555555-7777777777-8888888888--------------------
E)--------------------------------------------------------------------


CORO   Uuu see, Uuu see?
ACORDES   C,D,E,F,C
G)--------------------------------------------------------------------
D)--------------------------------------------------------------------
A)----3333333333-55555555555-7777777777-8888888888--3-----------------
E)--------------------------------------------------------------------


SON LOS MISMOS ACORDES DEL CORO  Uuu see, Uuu see?
ACORDES   C,D,E,F
G)--------------------------------------------------------------------
D)--------------------------------------------------------------------
A)----3333333333-55555555555-7777777777-8888888888--------------------
E)--------------------------------------------------------------------

LO MISMO  Uuu see, Uuu see?
ACORDES   C,D,E,F
G)--------------------------------------------------------------------
D)--------------------------------------------------------------------
A)----3333333333-55555555555-7777777777-8888888888--------------------
E)--------------------------------------------------------------------

SIGUE HACIENDO LO MISMO  HASTA EL FINAL DE LA CANCION TERMINANDO EN.C.

Se que ya no soy el mismo
ACORDES   C,D,E,F
G)--------------------------------------------------------------------
D)--------------------------------------------------------------------
A)----3333333333-55555555555-7777777777-8888888888--------------------
E)--------------------------------------------------------------------


BUENO ESPERO QUE LES AYA GUSTADO SOY SU BUEN AMIGO DE CELAYA
GUANAJUATO MEX.

YA SAVEN ALGUNA DUDA O SUGERENCIA LES DEJO MI MSN

HIELO_HIELO22@ ADIOS
Suggest correction
Give kudos to tab author, rate the tab!
1 2 3 4 5
comments
print report bad tab
guest
Wanna post a correction for this tab? Suggest correction