Oops, an error
Loading. Please wait.

Ahí Vienes Tab

version 1
version 1

Whole song

Interactive

by Motel
49 views 1 this week
no commentswrite comment
1 2 3 4 5
3 more votes to show rating
add to favorites
×
Save as Personal and add changes to this tab that will be seen only by you. Learn more ›
×
You can save this tab as Personal to edit and correct it or add notes. All changes will be seen only by you. Learn more »
save as personal
new!
launch autoscroll
font size
0
reset
how to read this tab
guitar tuner
Autoscroll
slow
fast
+/-
esc
set tempo
stop
Aqui esta, esta cancion de motel, q soy super fan, q esta muy padre,
espero q les guste, esta es la primera transcripcion q mando, y creo
q esta bien en un 90%
Los acordes y riffs estan al final.

Intro es el riff 1 (4 veces)

(en esta parte todos los C5 se rasguean una vez)
F6
El tiempo ya paso,
                 C5
volvimos a encontrarnos,
F6                                        C5
sale el sol, sale el sol entre tus brazos,
G6                                C5
todo puede suceder, si tu lo crees,
G6                               C5
todo es nuevo alguna vez, alguna vez,

A6                F6
y quiero agradecer,
                   riff 2 (2 veces)
el tiempo que pasamos,
A6                 F6
pues hoy yo se que ya no soy el mismo,
             F6     F6      C5
y se que ahi vienes tu tambien,
   D5     E6    D5-C5-D5-C5-D5-C5
uu se, uu se.

riff 1 (2 veces)

(en esta parte es el riff 3 - 8 veces)
A veces respirar costaba demasiado,
a tus brazos descanse, yo descanse,

A6                 F6
es que hoy yo se que ya no soy el mismo,
             F6     F6      C5
y se que ahi vienes tu tambien,
   D5     E6    D5-C5-D5-C5-D5
uu se, uu se,
   C5     D5     E6    D5-C5-D5-C5-D5-C5
uu se, uu se, uu se,

C5     D5     E6  D5
se, uu se, uu se,
(aqui el riff 4)    D5-C5-D5-C5-D5
uu se, uu se, uu se,

C5
Se que ya no soy el mismo,
D5
se que no has cambiado desde aquel inicio,
E6                                    D5-C5-D5-C5-D5-C5
solo me arrepiento y aquí vamos otra ves,
C5
se que ya no soy el mismo,
D5
se que no has cambiado desde aquel inicio,
E6                                   D5-C5-D5-C5-D5-C5-D5-C5-D5-C5-D5-C5
solo me arrepiento y aquí vamos otra ves.


Acordes:
      F6   C5   G6   A6   D5   E6
 e     x    x    x    x    x    x
 B     6    x    8    10   x    x
 G     5    5    7    9    7    9
 D     3    5    5    7    7    9
 A     x    3    x    x    5    7
 E     x    x    x    x    x    x

Riffs:

riff 1             riff 2     riff 3
e-------------     --------   ---------------------
B-------------     --------   ---------------------
G-------------     ----5---   -----5----------5----
D---2-2---2-2-     --------   --------5----------5-
A---3-3---3-3-     --3---3-   --3----------3-------
E--x-x-x-x-x--     --------   ---------------------

riff 4
e------------------------------------------------------------
B------------------------------------------------------------
G-----5--------5---------7--------7--------9--------9--------
D--------5--------5---------7--------7--------9--------9-----
A--3--------3---------5--------5--------7--------7---------5-
E------------------------------------------------------------

e-------------------
B-------------------
G-----7--------7----
D--------7--------7-
A--5--------5-------
E-------------------

Si tienen alguna duda o comentario escriban a mi correo:
jandroale12@
Suggest correction
Give kudos to tab author, rate the tab!
1 2 3 4 5
comments
print report bad tab
guest
Wanna post a correction for this tab? Suggest correction