Oops, an error
Loading. Please wait.

Así Me Quedo Tab

30 views 1 this week
no commentswrite comment
1 2 3 4 5
2 more votes to show rating
add to favorites
launch autoscroll
font size
0
reset
how to read this tab
guitar tuner
×
Best way to learn
"Así Me Quedo"
Autoscroll
slow
fast
+/-
esc
set tempo
stop
hola como estan aquí con un tab muy bueno que es de motel
bueno suena igual  la original y la version en acustico
bueno este tab lo puedes tocar en dos guitarra una hace
los arreglos y la otra acompaña ok un saludo a slave , jerry
martin jajaj que estan sacando rolas propias y tambien
a la angostura que es donde vivo donde el rock no se escucha
jajaja sale pues.-NOTA  PONGO LAS NOTAS
BIEN PERO COMO A MI NO ME GUSTA REPETIR MUCHO
LAS NOTAS AY TU LE DAS BIEN LOS TIEMPOS OK.-
SI SE TE HACE MUY CORTO EL TAB ES POR QUE BILLI
MENDEZ GOLPEA MUCHO UNA NOTA WE SI CHECATE
CUANDO TOCA EL WEY. HEY TE DEJO A TI QUE LE
PONGAS LA FORMA DE RAGUEAR OK.

INTRO:  C#m  (x5)    E - A - F# - A

G1        RIFF A1                           RIFF A2
                                     SE REPITE VARIAS VECES
E---------------------|--------------------------------|
A---------------------|--------------------------------|
D-----11-----11-----11|---11-------11-------11---11----|
G---9------9------9---|--------9-9------9-9----9---9-9-|
B-9------9------9-----|--------------------------------|
E---------------------|--------------------------------|

AHORA EL ACOMPAÑAMIENTO DE ARRIBA OJO TE QUEDAS
EN POCAS PALABRAS EN Cm# Y LE VAS MARCANDO PARA
QUE NO TE EQUIVOQUE PONGO PRIMERO LOS ARREGLOS
Y LUEGO EL ACOMPAÑAMIENTO OK

G2

   C#m

E-4-------4----|-------4---4-4-4-4-4-4-4-4-4-4--|
A-4-------4----|-------4---4-4-4-4-4-4-4-4-4-4--|
D-6-------6----|-------6---6-6-6-6-6-6-6-6-6-6--|
G-6-------6----|-------6---6-6-6-6-6-6-6-6-6-6--|
B-5-------5----|-------5---5-5-5-5-5-5-5-5-5-5--|
E-4-------4----|-------4---4-4-4-4-4-4-4-4-4-4--|


G1
        RIFF B                RIFF C                RIFF D
D-----------------|-----------------|----------------------|
G---9--9--9--9--9-|-9--9---9--9--9--|--9--9-11-11-11-11-11-|
B--12-12-12-12-12-|14-14--14-14-14--|-12-12-11-11-11-11-11-|

G2
  E               A                   F#

E-7-7-7-7-7-7--|--5-5-5-5-5-5-5-5--|--2-2-2-2-2-2-2-2--|
A-7-7-7-7-7-7--|--7-7-7-7-7-7-7-7--|--4-4-4-4-4-4-4-4--|
D-9-9-9-9-9-9--|--7-7-7-7-7-7-7-7--|--4-4-4-4-4-4-4-4--|
G-9-9-9-9-9-9--|--6-6-6-6-6-6-6-6--|--3-3-3-3-3-3-3-3--|
B-9-9-9-9-9-9--|--5-5-5-5-5-5-5-5--|--2-2-2-2-2-2-2-2--|
E-7-7-7-7-7-7--|--5-5-5-5-5-5-5-5--|--2-2-2-2-2-2-2-2--|


G1
                    RIFF E
D--------------|------------------|
G--9--9---9--9-|----9--9---9-9-9--|
B-14-14-14-14--|---12-12---9-9-9--|
E--------------|-----------9-9-9--|

G2

  A                         C#m

E-5-5-5-5-5-5-5-|-5-5-5-----4-4-4-|
A-7-7-7-7-7-7-7-|-7-7-7-----4-4-4-|
D-7-7-7-7-7-7-7-|-7-7-7-----6-6-6-|
G-6-6-6-6-6-6-6-|-6-6-6-----6-6-6-|
B-5-5-5-5-5-5-5-|-5-5-5-----5-5-5-|
E-5-5-5-5-5-5-5-|-5-5-5-----4-4-4-|


BUENO AHORA COMIENZA LOS VERSOS OK

G1                                 RIFF  F
                WEY ESTO SE REPITE MUCHAS VECES OK
D----------------|----------------|----------------|-----------------|
G-9-9--9-9--9-9--|-9-9--9-9--9-9--|-6-6---6-6--6-6-|-6-6---6-6--6-6--|
B-9-9--9-9--9-9--|-9-9--9-9--9-9--|-7-7---7-7--7-7-|-5-5---5-5--5-5--|
E-9-9--9-9--9-9--|-7-7--7-7--7-7--|-5-5---5-5--5-5-|-5-5---5-5--5-5--|

G2
  C#m                      E                 F#m                A

E-4-4-4--4-4----4-4---|-0---0-0---0-0-0--|-2--2-2-2-2-2-|-5-5-5-5---5-|
A-4-4-4--4-4----4-4---|-2---2-2---2-2-2--|-4--4-4-4-4-4-|-7-7-7-7---7-|
D-6-6-6--6-6----6-6---|-2---2-2---2-2-2--|-4--4-4-4-4-4-|-7-7-7-7---7-|
G-6-6-6--6-6----6-6---|-1---1-1---1-1-1--|-2--2-2-2-2-2-|-6-6-6-6---6-|
B-5-5-5--5-5----5-5---|-0---0-0---0-0-0--|-2--2-2-2-2-2-|-5-5-5-5---5-|
E-4-4-4--4-4----4-4---|-0---0-0---0-0-0--|-2--2-2-2-2-2-|-5-5-5-5---5-|


AHORA SIGUE EL CORO QUE NO ES OTRA COSA QUE LOS
MISMO ACORDE PERO MAS RAPIDO AL IGUAL QUE EL
ARREGLO DE G1 OK TE LO DEJO ABAJO.- SE REPITE
VARIAS VECES EL CORO WE SALE PUES.-

CORO:

G1

D-------------|-------------|-------------|-------------|
G-9-9-9-9-9-9-|-9-9-9-9-9-9-|-6-6-6-6-6-6-|-6-6-6-6-6-6-|
B-9-9-9-9-9-9-|-9-9-9-9-9-9-|-7-7-7-7-7-7-|-5-5-5-5-5-5-|
E-9-9-9-9-9-9-|-7-7-7-7-7-7-|-5-5-5-5-5-5-|-5-5-5-5-5-5-|

G2

  C#m               E                 F#m               A

E------------------|-----------------|---------------|-------------|
A-4-4-4-4-4-4-4-4-4|-7-7-7-7-7-7-7-7-|-9-9-9-9-9-9-9-|-12-12-12-12-|
D-6-6-6-6-6-6-6-6-6|-9-9-9-9-9-9-9-9-|-11-11-11-11-11|-14-14-14-14-|

LUEGO DESPUES DE QUE SE TERMINA EL CORO TE QUEDAS
EN Cm# UN BUEN RATO HASTA QUE ENTRAN EL INTRO
CON LOS RIFF CORRESPONDIENTES OK.-

G2

   C#m

E-4-------4----|-------4---4-4-4-4-4-4-4-4-4-4--|
A-4-------4----|-------4---4-4-4-4-4-4-4-4-4-4--|
D-6-------6----|-------6---6-6-6-6-6-6-6-6-6-6--|
G-6-------6----|-------6---6-6-6-6-6-6-6-6-6-6--|
B-5-------5----|-------5---5-5-5-5-5-5-5-5-5-5--|
E-4-------4----|-------4---4-4-4-4-4-4-4-4-4-4--|

INTRO: RIFF A1 -  RIFF A2 - RIFF B - RIFF C
RIFF E


NOTA..(OJO WE TE EXPLICO LOS RIFF
LOS ACOMPAÑAS CON LOS ACORDES
QUE ESTAN DEBAJO DE LOS RIFF OK
EN POCAS PALABRAS LOS ACORDES
SON Cm# - E - A - Cm# TE QUEDAS EN
DO MENOR SOSTENIDO [Cm#] HASTA
QUE COMIENZA OTRA VEZ LOS VERSOS
OK SALE PUES SIGAMOS.-

VERSO : los acordes y el arreglo esta arriba

CORO: esta tambien arriba ok wey

LUEGO SIGUE UNA PARADO O PAUSA
O BRIDGE COMO LE QUIERAS LLAMAR
PARA LUEGO ENTRAR AL SOLO OK WEY.
OJO TERMINA EL CORO EN Cm# Y LUEGO
ENTRA LA G1 OK.-

BRIDGE :

G1

G---------------|----------------|--------------|
B---9-10-12-10--|---9-10-12-10---|--9-10-12-7---|
E---------------|----------------|--------------|

G2
                E                  F#m                A
G---------------9-|-----------------2-|---------------9-|
B---------------9-|-----------------2-|--------------10-|
E---------------7-|-----------------2-|---------------9-|


G1

G------------------|----------------|-------9-|--9---9--9--9-9-9--|
B-9----9-10-12-----|---9-10-12------|--10-----|-14-14-14-14-14-14-|
E---------------12-|------------14--|---------|-------------------|

G2

  C#m              E                  F#m  A
G-9----------------9-|----------------2-|--6--|--6-6-6-6-6-6-6-6-|
B-9----------------9-|----------------2-|--5--|--5-5-5-5-5-5-5-5-|
E-9----------------7-|----------------2-|--5--|--5-5-5-5-5-5-5-5-|


AQUÍ VIENE EL SOLO DE ESTA CANCION OK


SOLO:

G1

G---------------------|--------------------------------------|
B-14------------------|-14----14---------------------14------|
E------12-14-12b---12-|----12----12---14---12-14b-12-----12b-|

G2
    C#m                             E
E---------------------|------------------------------------|
A-4-4-4-4-4-4-4-4-4-4-|-4-4-4-4-4-4-7-7-7-7-7-7-7-7-7-7-7--|
D-6-6-6-6-6-6-6-6-6-6-|-6-6-6-6-6-6-9-9-9-9-9-9-9-9-9-9-9--|

G1

G--------------|-----------------------------------------------|
B-14-----------|-12b---12-12-12-12-12----12b----12-12-12-12-12-|
E-----12-14-12-|-----------------------------------------------|

G2
               F#m                          A
E-------------|-2-2-2-2-2-2-2-2-2-2-2-2-2-2-5-5-5-5-5-5-5-5-5-5-|
A-7-7-7-7-7-7-|-4-4-4-4-4-4-4-4-4-4-4-4-4-4-7-7-7-7-7-7-7-7-7-7-|
D-9-9-9-9-9-9-|-------------------------------------------------|

G2

G--------------|------------------|------------------|------------|
B-12-12-12-12--|-14--14--14--14---|-14--14--14--14---|15--15--15--|
E---9--9--9--9-|---12--12--12--12-|---14--14--14--14-|--15--15-15-|

G2

   C#m          E               F#m                   A
E---------------|---------------|-2-2-2-2-2-2-2-|-5-5-5-5-5-5-5-|
A-4-4-4-4-4-4-4-|-7-7-7-7-7-7-7-|-4-4-4-4-4-4-4-|-7-7-7-7-7-7-7-|
D-6-6-6-6-6-6-6-|-9-9-9-9-9-9-9-|---------------|---------------|

LUEGO SIGUEL EL CORO IGUAL QUE ARRIBA OK
LUEGO LA SEGUNDA VEZ HACE UN ADORNO LA G1
Y LA G2 SIGUE ACOPAÑANDO IGUAL OK.

G1
   C#m                  E                F#m                   A
G-------------|-------------------|-----------------|----------------|
B---5-5---5---|---5---5---5---5---|------5---5---5--|-5---5---5--5---|
E-4---5-4---5-|----5---4----5---4-|---4---5---4---5-|---5---4---5--4-|

FINAL DE LA CANCION

RIFF A1 RIFF A2 Y TERMINA EN Cm#


BUENO ES TODO OJALA PUEDAN SACAR LA ROLA QUE
ESTA BUENA PUES SI TIENES UN COMENTARIO O DUDA
O LO QUE SEA MI CORREO ES KOBE_8_7@
ATTE MARTIN ARMENTA BELTRAN UN SALUDO A LOS
STROKESBERRY SALE PUES
Suggest correction
Give kudos to tab author, rate the tab!
1 2 3 4 5
comments
print report bad tab
guest
You may want to rate the tab now too:
select rating
Wanna post a correction for this tab? Suggest correction