Oops, an error
Loading. Please wait.

Olvídame Tab

version 2
version 2

Whole song

Interactive

by Motel
47 views 1 this week
no commentswrite comment
1 2 3 4 5
3 more votes to show rating
add to favorites
×
Save as Personal and add changes to this tab that will be seen only by you. Learn more ›
×
You can save this tab as Personal to edit and correct it or add notes. All changes will be seen only by you. Learn more »
save as personal
new!
launch autoscroll
font size
0
reset
how to read this tab
guitar tuner
Autoscroll
slow
fast
+/-
esc
set tempo
stop
Aqui les dejo esta rola que esta bien chida
haber si les gusta.


La Canción Va A 2 Guitarras
Una Toca Los Acordes Normales
Y La Otra Toca Las Octavas Con
Una Distorsión Liguera

INTRO:

      F                               A#
E*-------------------------------------------------------------*
B*-------------------------------------------------------------*
G*----9/10-10-10--9---10-10-10-10--9---2/3-3-3-2---3-3-3-3-2---*
D*-------------------------------------------------------------*
A*----7/8--8--8---7----8--8--8--8--7---0/1-1-1-0---1-1-1-1-0---*
E*-------------------------------------------------------------*
      F                               A#
E*-------------------------------------------------------------*
B*-------------------------------------------------------------*
G*----9/10-10-10--9---10-10-10-10--9---2/3-3-3-2---3-----------*
D*-------------------------------------------------------------*
A*----7/8--8--8---7----8--8--8--8--7---0/1-1-1-0---1-----------*
E*-------------------------------------------------------------*

F               Am
    La noche se disuelve
E*---------*---------*
B*----6----*----10---*
G*----5----*----9----*
D*----3----*----7----*
A*---------*---------*
E*---------*---------*
F              Am
    Recobra su color
E*---------*---------*
B*----6----*----10---*
G*----5----*----9----*
D*----3----*----7----*
A*---------*---------*
E*---------*---------*
F                  Am
    La sombras desvanecerán
E*---------*---------*
B*----6----*----10---*
G*----5----*----9----*
D*----3----*----7----*
A*---------*---------*
E*---------*---------*
F                Am
    El sueño y el sudor
E*---------*---------*
B*----6----*----10---*
G*----5----*----9----*
D*----3----*----7----*
A*---------*---------*
E*---------*---------*

(Aquí las Guitarras van con un efecto limpio)
  Dm           A#              F
Y el sol ya va saliendo a la ciudad
E*---------5----------------1-------*
B*-----6-----6----------1-----1-----*
G*---7---7-----7------2---2-----2---*
D*-7----------------3---------------*
A*----------------------------------*
E*----------------------------------*
   Dm          A#           C
Los autos se deslizan y se van
E*---------5----------------1-------*
B*-----6-----6----------1-----1-----*
G*---7---7-----7------2---2-----2---*
D*-7----------------3---------------*
A*----------------------------------*
E*----------------------------------*

(Otra vez con distorsión)
        F         A#
Y por favor olvídame
E*------3--*----1----*
B*------6--*----3----*
G*------5--*----3----*
D*------3--*----3----*
A*---------*---------*
E*---------*---------*
          F             A#
Igual que hoy Igual que ayer
E*------3--*----1----*
B*------6--*----3----*
G*------5--*----3----*
D*------3--*----3----*
A*---------*---------*
E*---------*---------*
      F
Olvídame
E*------3--*
B*------6--*
G*------5--*
D*------3--*
A*---------*
E*---------*


F                Am
Volvemos a encontrarnos
E*---------*---------*
B*----6----*----10---*
G*----5----*----9----*
D*----3----*----7----*
A*---------*---------*
E*---------*---------*
F              Am
En un gran almacén
E*---------*---------*
B*----6----*----10---*
G*----5----*----9----*
D*----3----*----7----*
A*---------*---------*
E*---------*---------*
F              Am
La noche es el contrato que
E*---------*---------*
B*----6----*----10---*
G*----5----*----9----*
D*----3----*----7----*
A*---------*---------*
E*---------*---------*
F              Am
Venimos a romper
E*---------*---------*
B*----6----*----10---*
G*----5----*----9----*
D*----3----*----7----*
A*---------*---------*
E*---------*---------*

(Aquí las Guitarras van con un efecto limpio)
  Dm             A#            F
Y el brillo nos lastima una vez más
E*---------5----------------1-------*
B*-----6-----6----------1-----1-----*
G*---7---7-----7------2---2-----2---*
D*-7----------------3---------------*
A*----------------------------------*
E*----------------------------------*
   Dm          A#       C       F
Y el maratón suicida que nos comerá
E*---------5----------------1-------*
B*-----6-----6----------1-----1-----*
G*---7---7-----7------2---2-----2---*
D*-7----------------3---------------*
A*----------------------------------*
E*----------------------------------*

(Otra vez con distorsión)
        F         A#
Y por favor olvídame
E*------3--*----1----*
B*------6--*----3----*
G*------5--*----3----*
D*------3--*----3----*
A*---------*---------*
E*---------*---------*
          F             A#
Igual que hoy igual que ayer
E*------3--*----1----*
B*------6--*----3----*
G*------5--*----3----*
D*------3--*----3----*
A*---------*---------*
E*---------*---------*
       F          A#
Y por favor olvídame
E*------3--*----1----*
B*------6--*----3----*
G*------5--*----3----*
D*------3--*----3----*
A*---------*---------*
E*---------*---------*
          F        A#
Igual que yo te olvidare
E*------3--*----1----*
B*------6--*----3----*
G*------5--*----3----*
D*------3--*----3----*
A*---------*---------*
E*---------*---------*
    F
Olvídame
E*---3--*
B*---6--*
G*---5--*
D*---3--*
A*------*
E*------*


Solo:
(Aquí son 2 guitarras una da el rasgueo en el tono marcado)
(Y la otra toca hace el requinto)

(Limpio)
    F                A#
e*----------------------------------------*
B*----------------------------------------*
G*------9/10--9---5------9h8-9-7-9/10-----*
D*----------------------------------------*
A*----------------------------------------*
E*----------------------------------------*
    F                A#
e*----------------------------------------*
B*----------------------------------------*
G*------9/10--9---5------9h8-9/10---------*
D*----------------------------------------*
A*----------------------------------------*
E*----------------------------------------*

(Con Distorsión Las 2 Guitarras)
e---------------------------------------------------*
B---------------------------------------------------*
G--14-14-14-14-14-14-14-14-14-14-14-14-9--9--9--9---*
D--x--x--x--x--x--x--x--x--x--x--x--x--x--x--x--x---*
A--12-12-12-12-12-12-12-12-12-12-12-12-7--7--7--7---*
E---------------------------------------------------*

e----------------------------------------------------*
B----------------------------------------------------*
G---10-10-10-10-10-10-10-10-10-10-10-10-7--7--7--7---*
D---x--x--x--x--x--x--x--x--x--x--x--x--x--x--x--x---*
A---8--8--8--8--8--8--8--8--8--8--8--8--5--5--5--5---*
E----------------------------------------------------*

e------------------------------------*
B------------------------------------*
G---5--5---5--5---5--5--9--9--9--9---*
D---x--x---x--x---x--x--x--x--x--x---*
A---3--3---3--3---3--3--7--7--7--7---*
E------------------------------------*

e-------------------------------------*
B-------------------------------------*
G-10--10---10--10--7--7--7--7--7--7---*
D-x---x----x---x---x--x--x--x--x--x---*
A-8---8----8---8---5--5--5--5--5--5---*
E-------------------------------------*

e----------------------------------------*
B----------------------------------------*
G---14--14--14--14--14--14--14/15--14/15-*
D---x---x---x---x---x---x---x--x---x--x--*
A---12--12--12--12--12--12--12/13--12/13-*
E----------------------------------------*

e----------------------------------------*
B----------------------------------------*
G--14-14-14-14-14-10-10-10-10-10-10-10---*
D--x--x--x--x--x--x--x--x--x--x--x--x----*
A--12-12-12-12-12-8--8--8--8--8--8--8----*
E----------------------------------------*

e------------------------------------*
B------------------------------------*
G---9--9--9--9--9--12-12-12-12-12-12-*
D---x--x--x--x--x--x--x--x--x--x--x--*
A---7--7--7--7--7--10-10-10-10-10-10-*
E------------------------------------*

e----------------------*
B----------------------*
G--7--7---5--5---3--3--*
D--x--x---x--x---x--x--*
A--5--5---3--3---1--1--*
E----------------------*

        F         A#
Y por favor olvídame
E*------3--*----1----*
B*------6--*----3----*
G*------5--*----3----*
D*------3--*----3----*
A*---------*---------*
E*---------*---------*
          F             A#
Igual que hoy igual que ayer
E*------3--*----1----*
B*------6--*----3----*
G*------5--*----3----*
D*------3--*----3----*
A*---------*---------*
E*---------*---------*
       F          A#
Y por favor olvídame
E*------3--*----1----*
B*------6--*----3----*
G*------5--*----3----*
D*------3--*----3----*
A*---------*---------*
E*---------*---------*
          F        A#
Igual que yo te olvidare
E*------3--*----1----*
B*------6--*----3----*
G*------5--*----3----*
D*------3--*----3----*
A*---------*---------*
E*---------*---------*
    F
Olvídame
E*---3--*
B*---6--*
G*---5--*
D*---3--*
A*------*
E*------*
Suggest correction
Give kudos to tab author, rate the tab!
1 2 3 4 5
comments
print report bad tab
guest
Wanna post a correction for this tab? Suggest correction