Oops, an error
Loading. Please wait.

Perdón Tab

11 views 1 this week
no commentswrite comment
1 2 3 4 5
3 more votes to show rating
add to favorites
launch autoscroll
font size
0
reset
how to read this tab
guitar tuner
Autoscroll
slow
fast
+/-
esc
set tempo
stop
Help us to improve Ultimate-Guitar.com Take our survey!
×
Intro  Riff 1

Riff 1
      C               Am      F
e-----------8-----------------5-----
B--------8-----8---------8----6-----
G---7/9----------9---7/9------5-----
D-----------------------------------
A-----------------------------------
E-----------------------------------


C                                   Am   F
Otra vez, despierto en el sueño eterno,
                     C
donde ayer te encontré,
                                Am     F
sin querer, mi espacio se va perdiendo.

PRECORO 1
F                                G
Más y más, me enredo en tu juego bajo el cielo y mar,
F                               G          F
dame más, del sueño no quiero despertar jamás.

CORO
C Riff 2                 Am Riff 2
     Pues cuando estamos lejos,
                    C Riff 2
se enciende mi fragilidad,
                    Am Riff 2
me pierdo en tu reflejo,
                 Dm/F
no quiero despertar,
                  F
tu sueño es mi lugar.

C                               Am   F
Otra vez, despacio te voy perdiendo,
                    C
sin razón sin por que,
                               Am             F
te busqué, debajo del cielo, que es eterno, nuestro cielo.

PRECORO 2
Sin pensar, me envuelvo en tus alas de cristal y mar,
dame más, del sueño no quiero regresar jamás.


CORO


INTERMEDIO
     C                          Am                         C
e----8----0--0--0--0--0--0--0---5----0--0--0--0--0--0--0---8----
B----8----8--8--8--8--8--8--8---5----5--5--5--5--5--5--5---8----
G----9----7--7--7--7--7--7--7---5----4--4--4--4--4--4--4---9----
D----10---10-10-10-10-10-10-10--7----7--7--7--7--7--7--7---10---
A----10---10-10-10-10-10-10-10--7----7--7--7--7--7--7--7---10---
E----8--------------------------5--------------------------8----
     C                          Am                         C
e-----0--0--0--0--0--0--0---5----
B-----8--8--8--8--8--8--8---5----
G-----7--7--7--7--7--7--7---5----
D-----10-10-10-10-10-10-10--7----
A-----10-10-10-10-10-10-10--7----
E---------------------------5----


PRECORO 3
F                              G            F
Dame más, del sueño no quiero despertar, jamás.

CORO 2
C                     Am
Pues cuando estamos lejos,
                     C
se enciende mi fragilidad,
                    Am
me pierdo en tu reflejo,
                 Dm
no quiero despertar,
                  F
tu sueño es mi lugar,
                  Dm
mil veces ni una más,
                  F  G   C
no quiero despertar.


Riff 2
e---7-8-8--7-8-8--7-8---
B-----------------------
G-----------------------   (2)
Suggest correction
Give kudos to tab author, rate the tab!
1 2 3 4 5
comments
print report bad tab
guest
You may want to rate the tab now too:
select rating
Wanna post a correction for this tab? Suggest correction