Oops, an error
Loading. Please wait.

De Entre Ríos A Neuquen Tab

by La Moto
8 views 1 this week
no commentswrite comment
1 2 3 4 5
3 more votes to show rating
add to favorites
×
Save as Personal and add changes to this tab that will be seen only by you. Learn more ›
×
You can save this tab as Personal to edit and correct it or add notes. All changes will be seen only by you. Learn more »
save as personal
new!
launch autoscroll
font size
0
reset
how to read this tab
guitar tuner
Autoscroll
slow
fast
+/-
esc
set tempo
stop
Bueno acá les dejo uno de los mejores temas de la moto
Que esta bastante +o- acepto correcciones soy Luis.s
De chos malal alguna duda... Luis_19rock@
Este tema se lo dedico mis amigos?.
1|-------------------------------------
2|-------------------------------------
3|-------------------------------------
4|-4-2-4-44-22-4---2-4-2-4-44-22-4---2-
5|-2-0-2-22-00-2-5-0-2-0-2-22-00-2-5-0-
6|---------------3-----------------3---

--------------------555-333-222-------------------
--------3-(2)-3p2p0-------------555-333-222-------
-------4------------------------------------444-2-
-4-4-4--------------------------------------------
-2-2-2--------------------------------------------
--------------------------------------------------

--------------------555-333-222-------------------
--------3-(2)-3p2p0-------------555-333-222-------
-------4------------------------------------(4)---
-4-4-4--------------------------------------------
-2-2-2--------------------------------------------
--------------------------------------------------


-10-10-77-10p7-9p7-77-10p7-9p7-77-10p7-9p7-77-10p7-9p7-
-------------------------------------------------------
-------------------------------------------------------
-------------------------------------------------------
-------------------------------------------------------
-------------------------------------------------------

------------------------/
------------------------/
-7/9-8-7-7/5-14~/15-17~-/
------------------------/
------------------------/
------------------------/

 Esta parte se hace moviendo la pua
 rápidamente arriba y abajo.
/--------------------------------------------------------/
/--------------------------------------------------------/
/--------------------------------------------------------/
/-222-444-555-777-999-777-555-444?7/9-8-77-55-4/6-4-33-5-/
/--------------------------------------------------------/
/--------------------------------------------------------/


/-----------------------------------------/
/-----------------------------------------/
/-----------------------------------------/
/-3-1-3-4-4-3-4-4-3-4-3-1-3-4-4-3-4-4-3-4-/
/-1-------------------1-------------------/
/-----------------------------------------/

/------------------------------------------------------------------
/-------------------------------------------------------------------
/-------------------------------------------------------------------
/-------------------------------------------------------------------
/-2-2-3-2-3-2-3-2-(3)-(4)-5-2-4-44-2-2-3-2-3-2-3-2-(3)-(4)-5-2-4-44-
/-0-0-1-0-1-0-1-0-(1)-(2)-3-0-2-22-0-0-1-0-1-0-1-0-(1)-(2)-3-0-2-22-


|--------------------555-333-222-------------------
|--------3-(2)-3p2p0-------------555-333-222-------
|-------4------------------------------------444-2-
|-4-4-4--------------------------------------------
|-2-2-2--------------------------------------------
|--------------------------------------------------

--------------------555-333-222-------------------/
--------3-(2)-3p2p0-------------555-333-222-------/
-------4------------------------------------(4)---/
-4-4-4--------------------------------------------/
-2-2-2--------------------------------------------/
--------------------------------------------------/


/--------------------------------------------------
/--------------------------------------------------
/-8/9--11-13b--11-13b--11-13b--11-13b--11-13b?11--
/------------13------13------13------13------13---
/---------------------------------------------------
/---------------------------------------------------


------------------------------------------------------
----------------------------------------------------
-9b-9-8-6-8-(7)-9/10-7-9-7-5------------------------
-----------------------------11-11-|-99-11-10p9-|x4-
----------------------------------------------------
----------------------------------------------------


-------------------------14-14|?12-14-12-14p12-|x2---
------------------------------|13--------------|  -----
-9/10-9-7-9-7-16b15b/17b----------------------------
---------9-----------------------------------------------
--------------------------------------------------
-----------------------------------------------------

-12-12?12-13-12-14p12----------------------------
------14--------------9b~11-13-15b15b-13-1113b-
-----------------------------------------------
------------------------------------------------
-------------------------------------------------
------------------------------------------------


-10-9-7---------------------------------------------
-------10-9-7---------------------------------------
-------------10-9-7-------------------------3h-3-2b-
-------------------10-9-7--------------8-55---1-----
-------------------------10-9-7--------6-33---------
-------------------------------10-9-7---------------


-----------------------------------------
-----------------------------------------
-----------------------------------------
-3-1-3-4-4-3-4-4-3-4-3-1-3-4-4-3-4-4-3-4-
-1-------------------1-------------------
-----------------------------------------

-11b11b11b11b11b-|13p12-10-9|x5-9b-11b13b15b13b11b3b11b-
--------------------------------------------------------
----------------------------------------------------------
--------------------------------------------------------
-----------------------------------------------------------
-----------------------------------------------------------


-------------------------------------
-------------------------------------
-------------------------------------
-4-2-4-44-22-4---2-4-2-4-44-22-4---2-
-2-0-2-22-00-2-5-0-2-0-2-22-00-2-5-0-
---------------3-----------------3---

--------------------555-333-222-------------------
--------3-(2)-3p2p0-------------555-333-222-------
-------4------------------------------------444-2-
-4-4-4--------------------------------------------
-2-2-2--------------------------------------------
--------------------------------------------------

--------------------555-333-222-------------------
--------3-(2)-3p2p0-------------555-333-222-------
-------4------------------------------------(4)---
-4-4-4--------------------------------------------
-2-2-2--------------------------------------------
--------------------------------------------------

-----------------------------------------
---------9b-12-10------10-12-10-?10?11---
-|9/11|x5-------11-9-11--------11-----12-
-----------------------------------------
-----------------------------------------
-----------------------------------------

-10-9-7--------------------------------------------------------------
-------10-9-7--------------------------------------------------------
-------------10-9-7-----------9-10-9-13b-----11-13-11---11-13-11?11-
-------------------10-9-7-9-10----------11-13---------13--------13-
-------------------------------------------------------------------
--------------------------------------------------------------------

-----------------------------------------
-----------------------------------------
-----------------------------------------
-3-1-3-4-4-3-4-4-3-4-3-1-3-4-4-3-4-4-3-4-
-1-------------------1-------------------
-----------------------------------------

-----------------------------------------------------------
-----------------------------------------------------------
-4/6-6/7-7/9-9/11-9-7-666--4/6-6/7-4/6-6/7-99-(6)-646-646-
-2/4-4/5-5/7-7/9?-7-5-444--2/4-4/5-2/4-4/5-77-(4)-424-424-
------------------------------------------------------------
----------------------------------------------------------

-----------------------------------------------|
-----------------------------------------------|
-----------------------------------------------|
-4-2-4-44-22-4---2-4-2-4-44-22-4---2?(4)))?24x-|
-2-0-2-22-00-2-5-0-2-0-2-22-00-2-5-0?(2)))?02x-|
---------------3-----------------3-------------|

Bueno espero que les sirva y aguante el Rock&Roll...
Suggest correction
Give kudos to tab author, rate the tab!
1 2 3 4 5
comments
print report bad tab
guest
Wanna post a correction for this tab? Suggest correction