Oops, an error
Loading. Please wait.

Ambición Tab

8 views 1 this week
no commentswrite comment
1 2 3 4 5
3 more votes to show rating
add to favorites
×
Save as Personal and add changes to this tab that will be seen only by you. Learn more ›
×
You can save this tab as Personal to edit and correct it or add notes. All changes will be seen only by you. Learn more »
save as personal
new!
launch autoscroll
font size
0
reset
how to read this tab
guitar tuner
Autoscroll
slow
fast
+/-
esc
set tempo
stop
Intro

e|-------------------------------------------------------------
B|-------------------------------------------------------------
G|----------------------------------------------5-7-7ba-p5---5v
D|-5-5-5h7-5---5-5-5h7-5---5-7---5-5-5h7-5--5h7------------7---
A|-3-3-3---3---3-3-3---3---3-3---3-3-3---3---------------------
E|-------------------------------------------------------------

e|-------------------------------------------------------------
B|-----------------------------------------15b/-15/-15/-15/----
G|-------------------------------------------------------------
D|-5-5-5h7-5---5-5-5h7-5---5-7--5-5-5h7-5----------------------
A|-3-3-3---3---3-3-3---3---3-3--3-3-3---3----------------------
E|-------------------------------------------------------------


e|------------------
B|-15ba-p13----13v--
G|----------14------
D|------------------
A|------------------
E|------------------


Riffs
    1
e|------------------------------------------
B|------------------------------------------
G|------------------------------------------
D|-5-5-5h7-5---5-5-5h7-5---5-7---5-5-5h7-5--
A|-3-3-3---3---3-3-3---3---3-3---3-3-3---3-
E|------------------------------------------

   2          3           4                   5
e|----------|-----------|-------------------|---------|
B|-8-----8--|-----------|-------------------|---------|
G|-8h9--8h9-|-----------|-------------------|---------|
D|----------|-5-5-5h7-8-|-8h10-8------------|-5--7--8-|
A|----------|-3-3-3---3-|---------10-8------|-3--3--3-|
E|----------|-----------|--------------11-8-|---------|


  Riff 1
Si cuando todo empezó


las cosas marchaban muy bien  Riff 2


ir por el mismo camino


tratando de poder crecer

       G5
ir repartiendo volantes


pegando afiches también


Riff 1
todos esos clubes y bares

                           Riff 4
tocando hasta el amanecer


luego llego el momento

                         Riff 2
de poder entrar a grabar


se nos cumplía el sueño


las cosas se empezaban a dar

           G5
sonaba el tema en la radio


el publico crecía mas y mas


las remeras y banderas


andaban por todo el lugar


G5                F5     C5
y hoy me pregunto que paso

G5                   F5   C5
cuando el camino se desvió

G5                  F5    C5
y hoy me pregunto que paso

G5                   F5   C5
porque el hambre se termino

  Solo
e|--------------8----------------------------------8------------
B|-------8------8--11b/--11//-8--------------8-----8--11b/-11//-
G|-10ba--8b---------------------10-8---10ba--8b-----------------
D|----------10---------------------------------10---------------
A|--------------------------------------------------------------
E|--------------------------------------------------------------


e|-------------------------------------------------------------
B|-8-----------------------------------------------------------
G|---10-8---7b-7b-7ba-p5---5-----5-7ba-p5---5------------------
D|-----------------------7-----7----------7-----7p5h7p5---5----
A|------------------------------------------------------7------
E|-------------------------------------------------------------


e|-------------------------------------------------------------
B|------------------------s8-8-8-8-8-8--8h10-8---8-----8-8h10-8
G|--------5---5------5-7--s9-9-9-9-9-9---------9-----9---------
D|--5--7b---7------7-------------------------------------------
A|7------------------------------------------------------------
E|-------------------------------------------------------------


e|----------------------------8--------------------------------
B|---10-----8-8h10-8---8---s8---8-11b-11b--11ba-p8----8--------
G|-9------9----------9-----------------------------10----------
D|-------------------------------------------------------------
A|-------------------------------------------------------------
E|-------------------------------------------------------------


e|----------------------------------------------8-8------------
B|---8-10ba-p8----8----------------8------------8-8------------
G|10-----------10-----10p8h10p8----8b-----8-10b-----10-8b------
D|------------------------------10-----10----------------------
A|-------------------------------------------------------------
E|-------------------------------------------------------------


e|----------------------------------------------------8-11p8-10p8
B|---------------------------------------------------------------
G|----8-10ba-p8----8-------8-10ba-p8----8------8-10b-------------
D|-10-----------10------10-----------10-----10-------------------
A|---------------------------------------------------------------
E|---------------------------------------------------------------


e|-----8----------------------------
B|-11b---11-8--11b-11b-11b/-11//-8--
G|----------------------------------
D|----------------------------------
A|----------------------------------
E|----------------------------------


e|--------------8----------------------------------8------------
B|-------8------8--11b/--11//-8--------------8-----8--11b/-11//-
G|-10ba--8b---------------------10-8---10ba--8b-----------------
D|----------10---------------------------------10---------------
A|--------------------------------------------------------------
E|--------------------------------------------------------------


e|--------------------------------------------------------------
B|-8-------11---8-10-8-----8-11----8-10-8------------------11-11
G|---10-8--10ba-8-10-8b----8-10ba--8-10-8b-----8b------s12------
D|----------------------10------------------10----10------------
A|--------------------------------------------------------------
E|--------------------------------------------------------------

e|-----8---------------------
B|-----8---------------------
G|-10b---10-8-10-8b----------
D|------------------10-8-10--
A|---------------------------
E|---------------------------


 Riff 1
desde un tiempo a esta parte

                              Riff 2
no se muy bien lo que sucedió


todo lo que era una fiesta

                           Riff 3
en un trabajo se convirtió

       G5
los pensamientos cambiaron


no entiendo porque tanta ambición

     Riff 1
si el esfuerzo es de todos


el fruto no es solo para vos

   Solo
e|-----8-8------8-8-----8-8-8--------------------------------8-8
B|-----8-8------8-8-----8-8-8-----8--------------------------8-8
G|-10b------10b-----10b--------10-8b------8-10ba-p8----8-10b----
D|-------------------------------------10-----------10----------
A|--------------------------------------------------------------
E|--------------------------------------------------------------


e|-----8-8-8--11b-8------8--8--------------
B|-----8-8-8------8------8--8--------------
G|-10b---------------10b------10ba-p8------
D|------------------------------------10-8-
A|-----------------------------------------
E|-----------------------------------------

e|--------------8----------------------------------8------------
B|-------8------8--11b/--11//-8--------------8-----8--11b/-11//-
G|-10ba--8b---------------------10-8---10ba--8b-----------------
D|----------10-----------------------------------10-------------
A|--------------------------------------------------------------
E|--------------------------------------------------------------

e|--------------------------------------------------------------
B|-8--------8-----8--8--8------8--8--8--------------------------
G|---10-8---8b----8b-8b-8b-----8b-8b-8b------8-10ba-8b----------
D|-------------10----------10-----------10-------------10-8-10--
A|--------------------------------------------------------------
E|--------------------------------------------------------------
Suggest correction
Give kudos to tab author, rate the tab!
1 2 3 4 5
comments
print report bad tab
guest
Wanna post a correction for this tab? Suggest correction