Oops, an error
Loading. Please wait.

Canto Para Tí Tab

5 views 1 this week
no commentswrite comment
1 2 3 4 5
3 more votes to show rating
add to favorites
×
Save as Personal and add changes to this tab that will be seen only by you. Learn more ›
×
You can save this tab as Personal to edit and correct it or add notes. All changes will be seen only by you. Learn more »
save as personal
new!
launch autoscroll
font size
0
reset
how to read this tab
guitar tuner
Autoscroll
slow
fast
+/-
esc
set tempo
stop
Intro

e|------------------------------------------------
B|------------------------------------------------
G|------------------------------------------------
D|-4-4-4h6-4---------------4-4-4h6-4--------------
A|-2-2-2---2--4-4-4--6-6---2-2-2---2--6-6-6--4-4--
E|------------2-2-2--4-4--------------4-4-4--2-2--

  Primer Solo
e|--------------------------------------------------
B|-12---12-------7--7---------------------------5v--
G|-11b--11ba-9---6b-6ba--4------4h6v----6s4-4v------
D|--------------------------7-----------------------
A|--------------------------------------------------
E|--------------------------------------------------

   Segundo Solo
e|-------------------------------------------------------------------
B|-12-------12-----------------------------------------------------12
G|-11b--11b----11ba-11v--9-9h11-9v----------9-11ba-p9-----9----11b---
D|---------------------------------11v---11------------11---11-------
A|-------------------------------------------------------------------
E|-------------------------------------------------------------------


e|-----------------------------------------------------------------
B|-----12-----12-----12--------------------------------------------
G|-11b----11b----11b----11ba-9-9v------9-11b/-11/-11/-11//-p9-11-9v
D|----------------------------------11-----------------------------
A|-----------------------------------------------------------------
E|-----------------------------------------------------------------

   Tercer Solo
e|-------------------------------------------------------------
B|-------------------------------------------------------------
G|-------------------------------------------------------------
D|-----------------------------------4s6-8ba-p6----------------
A|-9--9--9-9--8s9-8-8--9-8-6-4-6-------------------------------
E|-------------------------------------------------------------


e|-------------------------------------------------------------
B|-------------------------------------------------------------
G|-------------------------------------------------------------
D|-----------------------------------4s6-8ba-p6----------------
A|9--9--9-9--8s9-8-8--9-8-6-4-6--------------------------------
E|-------------------------------------------------------------


e|-------------------------------------------------------------
B|-------------------------------------------------------------
G|----------6-8s10-10s11-10-8-6--6s11-------11-13b-13b-13b-----
D|---6-8-9------------------------------s13--------------------
A|-9-----------------------------------------------------------
E|-------------------------------------------------------------


e|-----------------------------------------14-17-14-16b-16b-16b-16b-14
B|-------------14-11-14-11--14-14s16-16-16----------------------------
G|13ba-11-13b---------------------------------------------------------
D|--------------------------------------------------------------------
A|--------------------------------------------------------------------
E|--------------------------------------------------------------------


e|-------------------------------------------------------------
B|-14b--14ba-14--12-----14b-14ba-14-12-----11h12v--11-9-7------
G|------------------15-----------------15----------------------
D|-------------------------------------------------------------
A|-------------------------------------------------------------
E|-------------------------------------------------------------


e|------6h7p6-------------------------------------------------
B|-7s9--------9----14b-14ba-14-12----14b-14ba-14-12-----------
G|--------------------------------15----------------15--------
D|------------------------------------------------------------
A|------------------------------------------------------------
E|------------------------------------------------------------

e|--------------------------------------------------------------------
B|-12p11-12p11-14p11--12p11-12p11-14p11--12p11-12p11-12p11-12p11-14p11
G|--------------------------------------------------------------------
D|--------------------------------------------------------------------
A|--------------------------------------------------------------------
E|--------------------------------------------------------------------


e|--------------------------------------------------6-7p6------
B|-12p11-12p11-9-7---7-9--7-6--6--6-7--6s4-2-4--7s9-------9-7--
G|-------------------------------------------------------------
D|-------------------------------------------------------------
A|-------------------------------------------------------------
E|-------------------------------------------------------------


e|------------------------------6-7p6----------------------------
B|7-7-6s7s6-6--6-7-6s4-2-4--7s9-------7-------7-----7-----7-----7
G|----------------------------------------6h8---6h8---6h8---6h8--
D|---------------------------------------------------------------
A|---------------------------------------------------------------
E|---------------------------------------------------------------


e|-------------------------------------------
B|-7s9-9s7-7--7s9-9s11-11h12-12p11--11-9s7-7-
G|-------------------------------------------
D|-------------------------------------------
A|-------------------------------------------
E|-------------------------------------------

e|------6--------------------------------------------6-7p6-----
B|-7-9----9-7-6--6h7--7-7-6h7-6-6--6-7-6s4-2-4---7s9-------9---
G|-------------------------------------------------------------
D|-------------------------------------------------------------
A|-------------------------------------------------------------
E|-------------------------------------------------------------

e|---6-7-9---6-7-9----6-7-9-------6-7p6------------------------
B|-7--------------------------7-9-------9-7---7-7-6h7-6--6-7---
G|-------------------------------------------------------------
D|-------------------------------------------------------------
A|-------------------------------------------------------------
E|-------------------------------------------------------------


e|---------------6-7p6-----------------------------------------
B|-6s4-2-4---7-9-------9--------7-----7-----7-----7-----7-----7
G|--------------------------6h8---6h8---6h8---6h8---6h8---6h8--
D|-------------------------------------------------------------
A|-------------------------------------------------------------
E|-------------------------------------------------------------
Suggest correction
Give kudos to tab author, rate the tab!
1 2 3 4 5
comments
print report bad tab
guest
Wanna post a correction for this tab? Suggest correction