Oops, an error
Loading. Please wait.

Si Tuviera Algún Recuerdo Tab

2 views 1 this week
no commentswrite comment
1 2 3 4 5
3 more votes to show rating
add to favorites
launch autoscroll
font size
0
reset
how to read this tab
guitar tuner
×
Best way to learn
"Si Tuviera Algún Recuerdo"
Autoscroll
slow
fast
+/-
esc
set tempo
stop
Riff
e|-5----5----5--5---------------
B|-5h7--7h8--7--5--7-5----------
G|-----------------7-5ba--------
D|------------------------7--7--
A|---------------------------0--
E|------------------------------

Intro
e|-5----5----5--5-----------------5----5----5--5---------------
B|-5h7--7h8--7--5--7-5------------5h7--7h8--7--5--7-5--5-------
G|-----------------7-5ba----------------------------5b-5b------
D|------------------------7--7-----------------------------7-7-
A|---------------------------0-------------------------------0-
E|-------------------------------------------------------------

e|-5----5----5--5-----------------5----5----5--5---------------
B|-5h7--7h8--7--5--7-5-------5v---5h7--7h8--7--5--7-5-------8--
G|-----------------7-5ba--------------------------7-5ba--s9----
D|------------------------7------------------------------------
A|-------------------------------------------------------------
E|-------------------------------------------------------------

Riff X4

e|----------
B|----------
G|----------
D|----------
A|-3--------
E|---5-3-5--


Riffs
   1
e|--------------------|----------------|
B|--------------------|----------------|
G|----2-2-----------2-|----------------|
D|-s2------5-4-2----0-|----2----2----2-|
A|---------------4----|----0-3b-0----0-|
E|--------------------|-3b--------3b---|


       D5
Son las diez de la mañana

                                      A5  Riff 1
Siento el calor en mi cara, quema el sol

  D5
En mi cuerpo siento el agua

                               A5
Un portero me salpica el pantalón


       B5
Si pudiera

      D5
Si tuviera algún recuerdo

                A5
Te diría que paso

  B5
Estoy sin un centavo

     D5
Solo en constitución


Riff X4

     D5
Esta todo tan extraño

                                A5
Mis amigos, nadie sabe donde están

      D5
Tengo gente a mi lado

                            A5
Que me miran y se van a trabajar


  B5                D5
Estoy lejos, de mi casa

                   A5
Y esta gente no entiende


Que me siento mal

  B5
Disculpe una pregunta

    D5
La parada donde esta?


Riff X4

     D5
Y le juro a dios


Que a partir de hoy

      A5
Voy a cambiar mi vida y voy a ser mejor

     D5
Pero se que no


Es mi condición

          E5
Con mi adicción a cuestas

      D5                       A5
Solo puedo vivir... descontrolado.


e|----------------------------------------------------------------
B|----------------------------------------------------------------
G|----------------------------------------------------------------
D|----------------------------5-7p5----------------7p5------------
A|---------5-5h6-5----5-5h6h7--------------------------7----6p5---
E|-5--5h8-----------8----------------8b-5---5-5h8--------5--------

e|------------------------------------------------------------
B|------------------------------------------------------------
G|--------------------------------------------5-7p5-----------
D|------------5---X2----------5-5h6-5---5h6h7-----------------
A|---5-5h6-7-----------5--5-8---------8-------------8b-5------
E|-8----------------------------------------------------------


e|-------------------------------------
B|-------------------------------------
G|--------7p5--------------------5-----
D|------------7----6p5----5h6h7--------
A|-5-5h8--------5------8---------------
E|-------------------------------------


e|----------------------------------------------------------------
B|----------------------------------------------------------------
G|----------------------------------------------------------------
D|----------------------------5-7p5----------------7p5------------
A|---------5-5h6-5----5-5h6h7--------------------------7----6p5---
E|-5--5h8-----------8----------------8b-5---5-5h8--------5--------


e|-----------------
B|-----------------
G|-----------------
D|----------5------
A|---5h6h7---------
E|-8-----------5---
Suggest correction
Give kudos to tab author, rate the tab!
1 2 3 4 5
comments
print report bad tab
guest
You may want to rate the tab now too:
select rating
Wanna post a correction for this tab? Suggest correction