Oops, an error
Loading. Please wait.

Siempre Quiero Más Tab

7 views 1 this week
no commentswrite comment
1 2 3 4 5
3 more votes to show rating
add to favorites
launch autoscroll
font size
0
reset
how to read this tab
guitar tuner
Autoscroll
slow
fast
+/-
esc
set tempo
stop
Help us to improve Ultimate-Guitar.com Take our survey!
×
  Riff 1                          Riff 2
e|-------------------------------|----------------------------
B|-------------------------------|----------------------------
G|-------------------------------|----------------------------
D|-2-2------2--------------------|-5-5------5-----------------
A|-0-0--3h4---3b--2-2--2h4--4--2-|-3-3--6h7---6--5-5--5h7-7-5-
E|----------------0-0--0-0--0--0-|---------------3-3--3-3-3-3-

   Riff 3
e|----------15--------5-5-5-5-5-5----5-5-5---------------
B|----14-15-----------5-5-5-5-5-5----5-5-5---------------
G|-14--------------7b-------------7b-------7ba-p5--------
D|------------------------------------------------7-5-7--
A|-------------------------------------------------------
E|-------------------------------------------------------


Intro:

Riff 1 | Riff 1 | Riff 2 | A5

y sobre A5 el riff 3


A5
Si voy perdiendo quiero empatar
si voy empatando quiero ganar
la vida es un juego y quiero lo mejor
es lo que hace latir mi corazón

         E5    D5  C#5 B5
por eso quiero mas,

            E5    D5  C#5 B5
yo siempre quiero mas


A5
si tomo un trago siempre quiero dos
si tengo una chica siempre quiero dos
si con mis amigo hoy quiero estar
comiendo un asado para festejar
por eso quiero mas,
yo siempre quiero mas


  Solo

   B5             G5                      D5            A5
e|-7----7----7----7----7----7----7----7------------------------
B|-10b--10b--10b--10b--10b--10b--10b--10b----------------------
G|-----------------------------------------9b-9b-9ba--7--9ba---
D|-------------------------------------------------------------
A|-------------------------------------------------------------
E|-------------------------------------------------------------

  B5                   G5       D5                A5
e|-------------------------------------------------------------
B|--------10-----10--------------------------------------------
G|-9-7-9b----9b-----9b-9ba-7-7---------------------------------
D|-------------------------------7h9-7-------------------------
A|-------------------------------------9-8-7-------------------
E|-------------------------------------------10--7-7--5-5-0----

            E5
e|-------------------------------------------------------------
B|-7-----7-----------------------------10----------------------
G|-7-----7--------7-9-9ba-p7--9--7--9b-----9-7--9ba-p7---------
D|----9-----9------------------------------------------9-9-----
A|-------------------------------------------------------------
E|-------------------------------------------------------------

                  D5             A5
e|--------------------------------------------------------15---
B|-7--7------7----7-7-7-7---------------------------14-15------
G|-7--7b-----7b---7-7-7-7------------------------14------------
D|--------9---------------9--7---2-4-5-4-2--X4-----------------
A|-------------------------------0-0-0-0-0---------------------
E|-------------------------------------------------------------

   A5
e|----------------5-5-5-5-5-5----5-5-5--------------
B|----------------5-5-5-5-5-5----5-5-5--------------
G|-------------7b-------------7b-------7ba-p5-------
D|--------2-----------------------------------7-5-7-
A|-0---3--0-----------------------------------------
E|---3----------------------------------------------


  Segundo Solo

  B5    G5         D5           A5          B5
e|-------------------------------------------------------------
B|-----------------7----------------------------10--10-10-10---
G|-----------------7b----------------9ba-7--s11----------------
D|------------7-9------9--7h9--9-7-----------------------------
A|---------s9--------------------------------------------------
E|-------------------------------------------------------------

   G5          D5                A5          E5
e|-------------------------------------------------------------
B|-s12---------------------------------------------------------
G|------9b-9-7--------------------------------2b-2b-2b-2b-2ba-0
D|--------------7h9-7------------------------------------------
A|--------------------9-8-7------------------------------------
E|--------------------------10--7------------------------------

  E5
e|-------------------------------------------------------------
B|-----5-5----5-5-----5-5----5----5--5--7b-5----5--------------
G|--7b-----7b------7b-----7b---7b------------7b------2ba-0-----
D|-------------------------------------------------------------
A|-------------------------------------------------------------
E|-------------------------------------------------------------

  E5
e|----------------------------------
B|----------------------------------
G|-2p0---2p0---2p0------------------
D|-----2-----2-----2--2-2-2-2-2-2-2-
A|----------------------------------
E|----------------------------------


  Guitarra 1
e|-------------------------------------------------------------
B|-------------------------------------------------------------
G|----------------------------------------------------5b-------
D|----5----5----6-7------5----5----6-7------5----5-------7-----
A|-s7----7---7---------7----7---7--------7-----7---7-----------
E|-------------------------------------------------------------

  Guitarra 2

   E5                                                      A5
e|-------------------------------------------------------------
B|-------------------------------------------------------------
G|---------------------------------------------------------2---
D|---------------------------------------------------------0---
A|-2--------------------2------------------2------------3b-----
E|-0-0--3-0--3-0--4-5---0--3-0--3-0--4-5---0--3-0--3-0---------


  y despues:
e|----------15--
B|----14-15-----
G|-14-----------
D|--------------
A|--------------
E|--------------
Suggest correction
Give kudos to tab author, rate the tab!
1 2 3 4 5
comments
print report bad tab
guest
You may want to rate the tab now too:
select rating
Wanna post a correction for this tab? Suggest correction