Oops, an error
Loading. Please wait.

Tiene Razón Tab

22 views 1 this week
no commentswrite comment
1 2 3 4 5
3 more votes to show rating
add to favorites
launch autoscroll
font size
0
reset
how to read this tab
guitar tuner
Autoscroll
slow
fast
+/-
esc
set tempo
stop
Help us to improve Ultimate-Guitar.com Take our survey!
×
G - G - C - C

G - G - C - D


   G
Quizás me acusen de oveja descarriada

   C
En el rebaño del señor

   G
Quizás en mi espalda lleve cargada

    C
La cruz del mas pecador

   G
O que me condenen por mis andanzas

     C
En el reino del alcohol...

   G
Que alguien me tilde, de falso y de tranza

   C
Según convenga la ocasión


 Am                C
Que me señalen de mala persona

        G                  Em
Y no me importa que va a pasar

    C
Que soy una rata, que no valgo nada

   D
Y vivo siempre de los demás...

 G
Que soy un vago que esquiva el trabajo

      C
Y lo único que quiere es tocar

      G
Que soy mentiroso Y juro en vano

       C                   D
Que invento historias que nunca he pasado


   G         Em
Y creo que, tienen razón

     C              D
Me gusta tomar, me gusta fumar

   G          Em
Y creo que, tienen razón

  C                         D
Camino por las noches hasta que salga el sol

   G          Em
Y creo que, tienen razón

C                       D
Prefiero a mis amigos prefiero el alcohol

 G          Em
Y creo que tienen razón

  C                   D
Un alma sin salida en este callejón


  G
Siempre se quejan de la vida que amo

      C
Y de cómo visto se vuelven a quejar

   G
Si me corto el pelo si lo dejo largo

     C                      D
Si siempre estoy sucio y nunca me baño


   G         Em
Y creo que, tienen razón

     C              D
Me gusta tomar, me gusta fumar

   G          Em
Y creo que, tienen razón

  C                         D
Camino por las noches hasta que salga el sol

   G          Em
Y creo que, tienen razón

C                       D
Prefiero a mis amigos prefiero el alcohol

 G          Em
Y creo que tienen razón

  C                   D
Un alma sin salida en este callejón


Final (3:45) No confundir lo que hace la guitarra con la armónica


e|--------------------------------------------------------15---
B|----------15-------------------------------------------------
G|-------12-14b-12----------12-12-14p12------------12-14b------
D|-12h14--------------12h14-------------14---12h14------------
A|-------------------------------------------------------------
E|-------------------------------------------------------------


e|-------------------------------------------------------------
B|-15------------------------15--------------------------------
G|----14ba-12----12---14-12--14b-12---12-12-14p12--------------
D|------------14----------------------------------14-----------
A|-------------------------------------------------------------
E|-------------------------------------------------------------

e|-------------------------------------------------------------
B|-------------------------------------------------------------
G|-------------------------------------------------12-14b-12v--
D|-12h14p12-------------------------------12-12h14-------------
A|----------14-13-12s10--12-12---10-12s14----------------------
E|-------------------------------------------------------------
Suggest correction
Give kudos to tab author, rate the tab!
1 2 3 4 5
comments
print report bad tab
guest
You may want to rate the tab now too:
select rating
Wanna post a correction for this tab? Suggest correction