Oops, an error
Loading. Please wait.

Por Tí Tab

4 views 3 this week
no commentswrite comment
1 2 3 4 5
3 more votes to show rating
add to favorites
launch autoscroll
font size
0
reset
how to read this tab
guitar tuner
×
Best way to learn
"Por Tí"
Autoscroll
slow
fast
+/-
esc
set tempo
stop
Aqui les dejo esta rola super chin#@na, creo que
esta bastante bien para ser mi primer tab, hay se las dejo
para que la chequen.

Esta cancion es para mi chica, para que me crea
que si toco la lyra ;) Gracias por inspirarme TQM Adriana

Hubo un pequeño error de dedo sorry califiquenla ;)

Intro

Guitarra 1
e|------------------------------------------
B|------------------------------------------
G|--8ring--8-88/11---13-11-11h13--13/8------
D|------------------------------------------
A|------------------------------------------
E|------------------------------------------

e|------------------------------------------
B|------------------------------------------
G|--8ring--8-8-8/11---13-11-----------------
D|--------------------------13--------------
A|------------------------------------------
E|------------------------------------------

Guitarra 2 (Distorsion)
e|------------------------------------------
B|--4-4---4-4--4--44--4-4---4-4--4--44------
G|--4-4---4-4--4--44--4-4---4-4--4--44------
D|--2-2---2-2--2--22--2-2---2-2--2--22------
A|--0-0---0-0--0--00--4-4---4-4--4--44------
E|------------------------------------------

   *A
Tal vez así, caigo del cielo al suelo,
*C#
Y es por ti,
                *A
Por reflejarme una ves más
             *C#
En tus ojos de cristal,

   *A                        *C#
Tal vez así, renunciaría todo lo que hay,
                   *A
Por despertar un segundo en tu mundo,
         *C#
Poder entrar en ti,


ESTRIBILLO

        B5      A5             B5
Y es que tú me robas el aire,
      A5
ATú me haces volar,


CORO

E5   A5                    C#5
  Si?  entre tus labios me pierdo hoy,
   B5
Me pierdo hoy,
        E5   A5
Y es por ti?
                C#5              B5
Que dejaría de respirar, de respirar, por ti


(al terminar CORO Tocar INTRO)


    *A
Tal vez así
                     *C#
Quiero perderme un momento en ti,
           *A                            *C#
Para descifrarte, poder tocarte, una vez mas,


ESTRIBILLO

        B5      A5             B5
Y es que tú me robas el sueño,
      A5
Tú me haces volar,


CORO

E5   A5                   C#5
  Si?  entre tus labios me pierdo hoy,
   B5
Me pierdo hoy,
        E5   A5
Y es por ti?
                C#5              B5           E5
Que dejaría de respirar, de respirar, por ti


PUENTE
     A5                 C#5
Eres todo lo que tengo,
B5                     E5
Todo lo que quiero sentir,
     A5                C#5      B5 E5
Eres todo lo que sueño para mí,

      E  A
Y es así
                    C#m            B
Entre tus labios me pierdo hoy, me pierdo hoy,
        E    A
Y es por ti,
               C#m       B
Que dejaría de respirar, respirar,
       E5  A5
Y es así
                        C#5            B5
Que entre tus labios me pierdo hoy, Me pierdo hoy,
        E5  A                C#5          B5
Y es por ti?  Que dejaría de respirar, de respirar, por ti

E5  A  C#5 B5
E5  A  C#5 B5 E5

Guía
   *A   *C#
e|--------------
B|--4----4------
G|--4----4------
D|--2----2------
A|--0----4------
E|--------------

Dudas y sugerencias: alan_ketzel@
Suggest correction
Give kudos to tab author, rate the tab!
1 2 3 4 5
comments
print report bad tab
guest
You may want to rate the tab now too:
select rating
Wanna post a correction for this tab? Suggest correction