Oops, an error
Loading. Please wait.

Con Una Lágrima En La Garganta Tab

49 views 1 this week
no commentswrite comment
1 2 3 4 5
3 more votes to show rating
add to favorites
launch autoscroll
font size
0
reset
how to read this tab
guitar tuner
Autoscroll
slow
fast
+/-
esc
set tempo
stop
Help us to improve Ultimate-Guitar.com Take our survey!
×
Intro
D A E A D

E-------------------------------------------------------------
B--------------------------------------------------------------
G-------11-9-11----11-11-11-9-12-11----------------------------
D-----------------------------------------------12-12-11-------
A--12----------------------------------------------------------
E--------------------------------------------------------------

E--------------------------------------------------------------
B--------------------------------------------------------------
G--9-9----9----9-9-9----9/11-9---------------------------------
D------12------------12----------------------------------------
A--------------------------------------------------------------
E--------------------------------------------------------------

VERSO

  D                                    G
Dijiste que no hablara que así seria mejor
  E                                  A
Pediste que escuchara solo otra explicación
   D                                   B
Diciendo que lo nuestro ya no era aquel amor
   D                            A                              D
que solo era rutina que la pasión que había el tiempo la arrastro


CORO

   D                                   A
Con una lagrima en al garganta te vi. partir
   E                   A               D
mis ilusiones se destruyeron pensé morir
   B                             G
con una lagrima en la garganta llore tu amor
   A                                  D
y sin saber como pude hacerlo te dije adiós

VERSO
Luego vino el silencio, no supe qué decir
te vi tan decidida que no pude insistir
Junté todas mis fuerzas, traté de no llorar
dije que comprendía, sabiendo que mentía y te dejé marchar

CORO
Con una lágrima en la garganta te vi partir
mis ilusiones se destruyeron, pensé en morir
Con una lágrima en la garganta lloré tu amor
y sin saber cómo puede hacerlo te dije adiós

CORO  x 2
Suggest correction
Give kudos to tab author, rate the tab!
1 2 3 4 5
comments
print report bad tab
guest
You may want to rate the tab now too:
select rating
Wanna post a correction for this tab? Suggest correction