Oops, an error
Loading. Please wait.

Me Chupó Las Bolas Tab

version 1
version 1

Whole song

by Mox
5 views 1 this week
no commentswrite comment
1 2 3 4 5
3 more votes to show rating
add to favorites
launch autoscroll
font size
0
reset
how to read this tab
guitar tuner
Autoscroll
slow
fast
+/-
esc
set tempo
stop
Help us to improve Ultimate-Guitar.com Take our survey!
×
Intro:
|-/12-12-12p14-12--10-12--10-8---8p10-8--7-8-7--5-7-5--4-5-4--2-4-2--1-2-1------------------| 
|---------------------------------------------------------------------------5-3-2-1-0-3-----| 
|-------------------------------------------------------------------------------------------|
|-------------------------------------------------------------------------------------------|
|-------------------------------------------------------------------------------------------|
|-------------------------------------------------------------------------------------------|

C B A           E 
    El otro día fui a una fiesta
    D            A  
    y conocí una lola 
    A          E              D           A           
    me gustó y le pedí que me chupara las bolas
    A        E   D        A      A E G     
    ella accedió y me las chupó.
    
|--------------------------------------------------------------------------------------------|
|-------4-5-6-8-6-5^---6-5-1---88-6p7-6--66-4p5-4---3-4^--4h3-4-3-1----4-6`-6-4-8-6-5-4------|
|-3-4-5--------------------------------------------5------------------5------------------5---|
|--------------------------------------------------------------------------------------------|
|--------------------------------------------------------------------------------------------|
|--------------------------------------------------------------------------------------------|
Suggest correction
Give kudos to tab author, rate the tab!
1 2 3 4 5
comments
print report bad tab
guest
You may want to rate the tab now too:
select rating
Wanna post a correction for this tab? Suggest correction