Oops, an error
Loading. Please wait.

Me Chupó Las Bolas Tab

version 2
version 2

Whole song

by Mox
20 views 3 this week
no commentswrite comment
1 2 3 4 5
3 more votes to show rating
add to favorites
×
Save as Personal and add changes to this tab that will be seen only by you. Learn more ›
×
You can save this tab as Personal to edit and correct it or add notes. All changes will be seen only by you. Learn more »
save as personal
new!
launch autoscroll
font size
0
reset
how to read this tab
guitar tuner
Autoscroll
slow
fast
+/-
esc
set tempo
stop
Buenas!
La única tablatura que hay, lamentablemente, tiene muchos errores.
Me encargué de sacar los solos, así que aquí se los dejo.
(No es más que un juego de notas usando la escala de Am)

INTRO:

e|-----------10-12--13p12p10-12--10-----|
b|--10-12-13-------------------------13-|
g|--------------------------------------|
d|--------------------------------------|
a|--------------------------------------|
E|--------------------------------------|

e|-----------------------------------------------------|
b|--12-13-12--10-12-10--8-10-8--6-8-6--5-6-5--3-5-3----|
g|-----------------------------------------------------|
d|-----------------------------------------------------|
a|-----------------------------------------------------|
E|-----------------------------------------------------|

                     C5  B5  A5
e|----------------|----------------|
b|--1-3-1-0---1---|----------------|
g|----------2-----|---5---4---2----|
d|----------------|---5---4---2----|
a|----------------|---3---2---0----|
E|----------------|----------------|


FINAL:

e|----------------------------------------------------------------------|
b|----------------------------------------------------------------------|
g|-------------9-10-12-9--12-9-----12-10-9h10p9----10-9-----------------|
d|-----9-10-12-----------------10---------------12-------12----10-12b14-|
a|--12------------------------------------------------------12----------|
E|----------------------------------------------------------------------|

e|-------------------------------------------------------|
b|-------------------------------------------------------|
g|-----------------------------9-10p9-----12-10-9--------|
d|-12b14b12--12-----10---10-12---------12---------12-10--|
a|---------------12--------------------------------------|
E|-------------------------------------------------------|

Eso es todo.
Cualquier consulta a rocksinger_15[at]

[at] = @
Suggest correction
Give kudos to tab author, rate the tab!
1 2 3 4 5
comments
print report bad tab
guest
Wanna post a correction for this tab? Suggest correction