Oops, an error
Loading. Please wait.

Ron Damón Tab

version 1
version 1

Whole song

by Mox
43 views 1 this week
no commentswrite comment
1 2 3 4 5
3 more votes to show rating
add to favorites
launch autoscroll
font size
0
reset
how to read this tab
guitar tuner
Autoscroll
slow
fast
+/-
esc
set tempo
stop
Help us to improve Ultimate-Guitar.com Take our survey!
×
"que paso que paso vamosai"

E||------------------------------------------------------------------|
B||------------------------------------------------------------------|
G||------------------------------------------------------------------|
D||--6--------------7----------------9----7------6----7----6---------|
A||-------7----7-----------7----7-------------------------------9----|
E||------------------------------------------------------------------|
                                                                     
------------------------------------------------------------------|
------------------------------------------------------------------|
------------------------------------------------------------------|
--6--------------7----------------9----7------6----7----9----6----|
-------7----7-----------7----7------------------------------------|
------------------------------------------------------------------|
                                                                     
------------------------------------------------------------------|
------------------------------------------------------------------|
------------------------------------------------------------------|
------------7----------------9----7----6------7----6---------6----|
--7----7---------7------7-------------------------------9---------|
------------------------------------------------------------------|
                                               
--------------------------------------------||
--------------------------------------------||
--------------------------------------------||
------------7----------------9----9----9----||
--7----7---------7------7-------------------||
--------------------------------------------||

E                A         E 
Rindo tributo a nuestro patrón
          A    E
fue boxeador pero nunca pegó
                  A             E 
el no era bueno para pagar las cuentas
                       A       B 
siempre debia catorce meses de renta

C#    A            E
yo admiro a don Ramon
C#       A
flaco tatuado
   B
el mas chingon

E           A                    E
la bruja e mierda siempre te acoso
               A              E
doña florinda siempre te humillo
             A          E
jirafales en menos te miro
                      A            B
y el hocicon de quico siempre te acuso

C#    A            E
yo admiro a don Ramon
C#       A
flaco tatuado
    B
el mas mejor
C#     A            E
es mi maestro don ramon
C#         A        B
por ti me tomo este ron

E||----------------------|----------------------|----------------------|
B||----------------------|----------------------|----------------------|
G||----------------------|----------------------|----------------------|
D||--6--------------7----|------------9----7----|--6----7----6---------|
A||-------7----7---------|--7----7--------------|-----------------9----|
E||----------------------|----------------------|----------------------|


                                                                     
----------------------|----------------------|----------------------|
----------------------|----------------------|----------------------|
----------------------|----------------------|----------------------|
--6--------------7----|------------9----7----|--6----7----9----9----|
-------7----7---------|--7----7--------------|----------------------|
----------------------|----------------------|----------------------|


                                                                          
-----------------------|-----------------------|-------------------------|
-------------9---------|-------10--------------|--12----10----9----10----|
--8----11---------9----|--9----------9----9----|-------------------------|
-----------------------|-----------------------|-------------------------|
-----------------------|-----------------------|-------------------------|
-----------------------|-----------------------|-------------------------|


                                                                            
-----------------------|-----------------------|--------------------------||
--9----------9---------|-------10--------------|--12----12----12----13----||
-------11---------9----|--9----------9----9----|--------------------------||
-----------------------|-----------------------|--------------------------||
-----------------------|-----------------------|--------------------------||
-----------------------|-----------------------|--------------------------||

F                  Bb           F
EL rascabuches peterete y ron damon
F                       Bb         F
siempre seran mi fuente de inspiración
F                       Bb            F
te grito para que me escuches donde estes
F                    Bb     C
hoy te saludo gran ramon valdez

G-B-C (x veces)
...toma!

AGnANTE LoS MoX!
=dale=Cato=
Suggest correction
Give kudos to tab author, rate the tab!
1 2 3 4 5
comments
print report bad tab
guest
You may want to rate the tab now too:
select rating
Wanna post a correction for this tab? Suggest correction