Oops, an error
Loading. Please wait.

Ron Damón Tab

version 2
version 2

Whole song

by Mox
106 views 1 this week
no commentswrite comment
1 2 3 4 5
3 more votes to show rating
add to favorites
×
Save as Personal and add changes to this tab that will be seen only by you. Learn more ›
×
You can save this tab as Personal to edit and correct it or add notes. All changes will be seen only by you. Learn more »
save as personal
new!
launch autoscroll
font size
0
reset
how to read this tab
guitar tuner
Autoscroll
slow
fast
+/-
esc
set tempo
stop
aqui este temazo de los mox!
el rasgueo de los versos es asi
ej:
      E      G
   D|-----2------5-|
   A|-----2------5-| etc.
   E|-0-0-0--3-3-5-|

los coros se tocan normal
-------------------------------------------------------------

   G#     A    E       B     G#    A    E        B
e|--------------------------|----------------------|
B|--------------------------|----------------------|
G|--------------------------|----------------------|
D|-6-----7-----9-7-6-7-6----|6-----7-----9-7-6-7-9-|
A|---7-7---7-7-----------9-9|--7-7---7-7-----------|
E|--------------------------|----------------------|
   G#     A    E       B     G#    A      B
e|--------------------------|---------------|
B|--------------------------|---------------|
G|--------------------------|---------------|
D|-6-----7-----9-7-6-7-6----|6-----7---7--9-|
A|---7-7---7-7-----------9-9|--7-7---7------|
E|--------------------------|---------------|


E      G#      A
Rindo tributo a nuestro patrón
E       G#   A
fue boxeador pero nunca pegó
E         G#   A
el no era bueno para pagar las cuentas
E          G#   A
siempre debía catorce meses de renta


C#    A           E
yo admiro a Don Ramon
C#       A         B
flaco tatuado, el más chingón


E         G#       A
La bruja e mierda siempre te acosó
E       G#      A
Doña Florinda siempre te humilló
E    G#       A
Jirafales en menos te miró
E        G#             A
y el hocicón de Quico siempre te acusó


C#    A           E
yo admiro a Don Ramon
C#       A         B
flaco tatuado, el más mejor
C#     A            E
es mi maestro Don Ramon
C#        A         B
por ti me tomo este ron

   G#     A    E       B     G#    A    E        B
e|--------------------------|----------------------|
B|--------------------------|----------------------|
G|--------------------------|----------------------|
D|-6-----7-----9-7-6-7-6----|6-----7-----9-7-6-7-9-|
A|---7-7---7-7-----------9-9|--7-7---7-7-----------|
E|--------------------------|----------------------|

            G#    A       E          B
e|--------|----------------------------------|
B|------7-|-9-----10------12-10-9-10-9-------|
G|--7-9---|---9-9----9-9---------------11-11-|
D|9-------|----------------------------------|
A|--------|----------------------------------|
E|--------|----------------------------------|

  G#    A#     B     F
e|-----------------|-----|
B|9-----10---10-12-|-13--| (cuando se toca el 13 se empieza
G|--9-9----9-------|-----|  altiro con el verso siguiente)
D|-----------------|-----|
A|-----------------|-----|
E|-----------------|-----|


F        A          A#
El rascabuches peterete y Ron Damon
F          A            A#
siempre serán mi fuente de inspiración
F        A              A#
te grito para que me escuches donde estes
F         A           A#
hoy te saludo gran Ramon Valdez

G   B C
 Toma !!!  X4
(se termina con G)
Suggest correction
Give kudos to tab author, rate the tab!
1 2 3 4 5
comments
print report bad tab
guest
Wanna post a correction for this tab? Suggest correction