Oops, an error
Loading. Please wait.

Toy Con Caña Bass Tab

44 views 1 this week
no commentswrite comment
1 2 3 4 5
3 more votes to show rating
add to favorites
launch autoscroll
font size
0
reset
guitar tuner
×
Best way to learn
"Toy Con Caña"
Autoscroll
slow
fast
+/-
esc
set tempo
stop
   
coro
G--------------------------------------------
D--------------------------------------------
A---------------------5-5-5-5--7-7-7-7-------
E----4-4-5-5--4-4-5-5------------------------

Fue much....
G-------------------------------------------------------------
D-2-2-2-2-2-2--------------2-2-2-2-2-2------------------------
A-------------2-2-2-2-2-2--------------0-0-0-0-0-0------------
E-------------------------------------------------------------

_________________________________

viva chile mierda!
Suggest correction
Give kudos to tab author, rate the tab!
1 2 3 4 5
comments
print report bad tab
guest
You may want to rate the tab now too:
select rating
Wanna post a correction for this tab? Suggest correction