Oops, an error
Loading. Please wait.

Y Cómo Es El? Tab

by Mox
49 views 3 this week
no commentswrite comment
1 2 3 4 5
3 more votes to show rating
add to favorites
launch autoscroll
font size
0
reset
how to read this tab
guitar tuner
Autoscroll
slow
fast
+/-
esc
set tempo
stop
Y COMO ES EL?

Intro Pall Mute
D  A#   G          x 2

D  G  A# A D      x2

(Guitarra)
E-----------------------------------------------------
B-------6--6-------------6--6-----------------------
G----7---7--7---7-7-7--7---7-----9-----12-----
D----------------------------------------------------
A-----------------------------------------------------
E-----------------------------------------------------

E-----------------------------------------------------
B-------6--6-------------6--6-----------------------
G----7---7--7---7-7-7--7---7-----9-----12-----------
D----------------------------------------------------
A-----------------------------------------------------
E-----------------------------------------------------

C  A#  F A#        x2

E-----------------------------------------------------
B--------8-6---------6--------------6---------------
G--5-8------8-5------8-5-----8-7----------------
D----------------------------------------------------
A-----------------------------------------------------
E-----------------------------------------------------

E-----------------------------------------------------
B--------8-6---------6-------------------6-8-------
G--5-8------8-5------8-5-----8---7--------------
D----------------------------------------------------
A-----------------------------------------------------
E-----------------------------------------------------


C                      D
Mirandote a los ojos, juraria
G                         C
Que tienes algo nuevo que contarme
F                          C
Empieza ya mujer no tengas miedo
F                      C
Que ya para mañana sera tarde
F                       C
Que ya para mañana sera tarde


   F
Y como es el
  G                  C
En que lugar se enamoro de ti
   F
De donde es
  G                  C
A que dedica el tiempo libre
  F
Es un ladrón
  G                  C
Que me ha robado todo.


Y como es el
En que lugar se enamoro de ti
De donde es
A que dedica el tiempo libre

Preguntale,
Porque ha robado un trozo de mi vida
Es un ladron
Que me ha robado todo.

Inter:  C    C A G    C G F   x2

Arreglate mujer, se te hace tarde
Y llevate el paraguas por si llueve
El te estara esperando para darte
Y yo estare celoso de perderte

Sonrriete,
Que no sospeche que has llorado
Y dejame,
Que tengo listo mi equipaje
Perdoname
Si te hago otra pregunta

Y como es el
En que lugar se enamoro de ti
De donde es
A que dedica el tiempo libre

Preguntale,
Porque ha robado un trozo de mi vida
Es un ladron
Que me ha robado todo.
Suggest correction
Give kudos to tab author, rate the tab!
1 2 3 4 5
comments
print report bad tab
guest
Wanna post a correction for this tab? Suggest correction