Oops, an error
Loading. Please wait.

Lágrimas De Sangre Tab

106 views 3 this week
no commentswrite comment
1 2 3 4 5
3 more votes to show rating
add to favorites
×
Save as Personal and add changes to this tab that will be seen only by you. Learn more ›
×
You can save this tab as Personal to edit and correct it or add notes. All changes will be seen only by you. Learn more »
save as personal
new!
launch autoscroll
font size
0
reset
how to read this tab
guitar tuner
Autoscroll
slow
fast
+/-
esc
set tempo
stop
tab by sebapunks
contactos : 
-----------------------------------------------------------------

aki la kancion kompleta de los muertos
ojala les guste
cualkier consulta me preguntan por msn

pd: un saluo pa los cauros del cinemark de plaza oeste
  son terrible tela en especial el romo , al gonzalo y  la karina

pd 2 : pronto esta cancion en guitar pro


              lagrimas de sangre

kintas                              akordes

  [ch]E5   [ch]B5    [ch]A5    [ch]C#5    /    MI[/ch]     SI[/ch]     DO#m[/ch]    LA[/ch]

e----  e----  e----  e-----   /   e--7-  e--7-  e--9--  e--5-
b----  b----  b----  b-----       b--9-  b--7-  b--9--  b--5-
g--9-  g----  g----  g-----   /   g--9-  g--8-  g--9--  g--6-
d--9-  d--9-  d--7-  d--11-       d--9-  d--9-  d--11-  d--7-
a--7-  a--9-  a--7-  a--11-   /   a--7-  a--9-  a--11-  a--7-
E----  E--7-  E--5-  E--9--       E--7-  E--7-  E--9--  E--5-

                  [ch]E5[/ch]
¿Qué te pasa, Manuel?

                 [ch]B5[/ch]
¿Tú qué crees, mujer?

               [ch]A5[/ch]  [ch]C#5[/ch]
Hartos de trabajar

                [ch]B5[/ch]
y no tenemos para comer.


               [ch]E5[/ch]
Tranquilo, Manuel,

               [ch]B5[/ch]
todo tiene su fin.

                  [ch]A5[/ch]  [ch]C#5[/ch]
¿Pero cuándo, mi amor,

               [ch]B5[/ch]
si la vida flaquea ante mí?


               [ch]E5[/ch]
Unos la buena vida

                [ch]B5[/ch]
a costa de los demás,

                [ch]C#5[/ch]
y a nosotros en la desgracia

           [ch]A5[/ch]
sólo nos queda soñar.


(kON LOS MISMOS ACORDES)

Sueño de mil colores
que mi alma quiere tocar,
sueños muy lejanos
que el nuevo día se llevará.

Mientras ellos sonríen,
a otros nos toca llorar
lágrimas de sangre
que desembocan en el mar.

aki yo okupo 2 kuerdas y sa hace ma facil

  guitarra limpia    distorsion
e-----------------------rapido----
b--9-10-9--12-14---10[9-10-9----]-
g--9-9--9--11-13-----[------11-9]-

Un mar incierto
de miseria y desilusión,
un mar cautivo
como el obrero del patrón.

ESTRIBILLO:

Obrero, levanta tu puño emancipador
golpeando sin miedo al tirano explotador.
Obrero, despierta, no pierdas la ocasión
de escribir la historia a una nueva generación.

punteo (ta el punteo original
  pero le agregue un poco del punteo de una cancion en vivo )

e-----------------------------9-----/------------------------------
b--9-10-9-----9-12-9---------9-12-9-/-9-10-9----9-12-9-------------
g--------11-9-------11-9-11---------/-------11-9------11-9-11---8--
d--------------------------9--------/------------------------9---9-
a------------------------------------------------------------------
E------------------------------------------------------------------


e-------------------------------7---------/
b--------------------------7-6-7-9-7------/
g-------------------6-6-7-6-9-------9->11-/
d--7-6-7-6-----6-7-9-9--------------------/
a---------9-7-9---------------------------/
E-----------------------------------------/

   []aki kmbian rapido
/------- los deos----------9---------
/--9-10-[10-9-10-]-12-10-12-12-10-12-
/11-----[-------9]-------------------
/------------------------------------
/------------------------------------
/------------------------------------

esta parte va maomeno rapida

e---------------------------------------
b--10-9-10-9----12-9--10-9-10-9----12-9-
g-----------11-9---------------11-9-----
d---------------------------------------
a---------------------------------------
E---------------------------------------

/---------------------------------------
/-10-9-10-9----12-9--10-9-10-9-----12-9-
/----------11-9---------------11-9------
/---------------------------------------
/---------------------------------------
/---------------------------------------

e------------------------------------------
b--10-9-10-9-9-9-10-9--9-9-9-12-9-9-9-12-9-
g------------------------------------------
d------------------------------------------
a------------------------------------------
E------------------------------------------

/--------------------------------------------
/-10-9-10-9----12-9--10-9-10-9----12-9-------
/----------11-9---------------11-9----11-9-9-
/--------------------------------------------
/--------------------------------------------
/--------------------------------------------


                                            aki deslizan         vibrato
e---------------------------------------9-----12-->16-16-16-16-14-[12]--
b------9-10-[9-10-9--]-----9-10-12-10-12-12-0---------------------------
g--9-11-----[------11]-9-11---------------------------------------------
d-----------------------------------------------------------------------
a-----------------------------------------------------------------------
E-----------------------------------------------------------------------


[ch]E5--[ch]B5[/ch]--[ch]A5[/ch]--[ch]C#5[/ch]--SI5[/ch]


ahora va el riff reggae

[ch]E--[ch]B[/ch]--[ch]C#m[/ch]--LA[/ch]

Rastaman

e-----------------------------deslizan-
b---9---------------9---------10->12---
g--9-11-9-11-9--9--9-11-9-11-9---------
d-------------11-----------------------
a--------------------------------------
E--------------------------------------

              cambio
/-------------rapido----------------------------
/-9-10-12-10-[9-10-9--]-----9------------------
/------------[------11]-9-11-11-9-11-9--9------
/-------------------------------------11--11-9-
/----------------------------------------------
/----------------------------------------------


                                 deslizan
e------------------------------12-14->16--14-12-14-12-9deslizan-
b-------------9--9-10-12--12-14------------------------12->14---
g------9--9-11--------------------------------------------------
d--9-11---------------------------------------------------------
a---------------------------------------------------------------
E---------------------------------------------------------------

/---9-12-9--------------------
/-12------12-9-12-9---------9-
/-------------------11-9-11-9-
/-----------------------------
/-----------------------------
/-----------------------------


[ch]E5--[ch]B5[/ch]--[ch]A5[/ch]--SI5[/ch]


                [ch]E5[/ch]
Hasta siempre, Manuel,

               [ch]B5[/ch]
nunca te olvidaré,

             [ch]A5[/ch]
flores en tu tumba

          [ch]B5[/ch]
te pone tu mujer.


              [ch]E5[/ch]
Tranquilo, Manuel,

              [ch]B5[/ch]
todo tiene su fin,

             [ch]A5[/ch]
esa porra asesina

            [ch]B5[/ch]
yace junto a ti.

Lágrimas de sangre, lágrimas de sangre...

e----------------/----------------------------
b------9---------/-----9-deslizan-9-12-9------
g--9-9--9-11-9-8-/-9-9--9-9->11--9------11-9--

ESTRIBILLO.

final

e---------------------------------------------------deslizar-7-5-4-4-5-4---
b-------------------------------------------5--5-7-5--7->9--------------5--
g--9-8-6-4-2-1-deslizar------------1-2-4-6-8-------------------------------
d--------------2->4-----2-2-2-1-2-4----------------------------------------
Suggest correction
Give kudos to tab author, rate the tab!
1 2 3 4 5
comments
print report bad tab
guest
Wanna post a correction for this tab? Suggest correction