Oops, an error
Loading. Please wait.

Miliciano Anónimo Bass Tab

41 views 1 this week
no commentswrite comment
1 2 3 4 5
3 more votes to show rating
add to favorites
launch autoscroll
font size
0
reset
guitar tuner
Autoscroll
slow
fast
+/-
esc
set tempo
stop
Help us to improve Ultimate-Guitar.com Take our survey!
×
Aka les va una kancion muy buena de
Los Muertos de Cristo sakado de Disko
Bienvenidos al Infierno

Primero empieza con el intro de guitarra

Y después siguiendo la guitarra en toda la kancion

G-----------------------------------------
D----------2-22222------------------------
A---2-222-2-------------------------------  X4
E-----------------------------------------

Kuantos años van pasando??

G-----------------------------------------
D----------2-22222------------------------
A---2-222-2------------------------------- x4
E-----------------------------------------

Kuantas lagrimas derramadas??

G-------------------------------------------------------------------
D-------------------------------------------------------------------
A----3-333-3----------3-333-3-----------3-333-3---------3-333-3232--
E-----------3-3333333--------2-3333333---------3-333333-------------

Y kuando dice ?Kuenta tus dinero.. es igual k los 2 primeros versos

Estribillio

Miliciano libertario tu Kamino Hay ke Seguir??

G----------------------------------------------------------
D----2-22222--------2-22222--------------------------------
A-----------2-222222-------3-333333------2-22222-33232(bis)  X2
E----------------------------------3-333333----------------

Kuando la guitarra hace el solo el bajo hace esto??

G----------------------------------------------------------
D--------5------------5------------------------------------
A----7-77-7-------7-77-7---------------2-22222-3323222222--  X2
E----------7-77777------8-88888-3-33333--------------------

De nuevo ?Miliciano libertario tu Kamino Hay ke Seguir???

G----------------------------------------------------------
D----2-22222--------2-22222--------------------------------
A-----------2-222222-------3-333333------2-22222-33232(bis)  X2
E----------------------------------3-333333----------------

Haora viene esta parte???

G-------------------------------------------------------------
D---2-22-22-------2-2-22--------------------------------------
A----------2-22-22-------3-33-33-------2-22-22-3-33-33-2-22-22
E-------------------------------3-33-33-----------------------


Haora kuando dice ? si temer por su vida????

G----------------------------------------------------------------
D---2-22-22-----------------------7-7----------------------------
A----------2-22-22----3-33-33?5-55-5-----------------------------  X2
E----------------------------------------------------------------


El futuro no te olvida????

G----------------------------777777------------------------
D---2-22222-3-2222---2-2225--------------------------------
A----------------------------------3-3333-2-3333-33232(Bis)
E----------------------------------------------------------

Es lo mismo kuando dice ?¡Tranquilos abuelos!, ¡ya estamos aquí!

Haora viene otro solo y se hace lo mismo k el solo anterior


G----------------------------------------------------------
D--------5------------5------------------------------------
A----7-77-7-------7-77-7---------------2-22222-3323222222--  X2
E----------7-77777------8-88888-3-33333--------------------


Miliciano libertario te kamino hay k seguir

G----------------------------------------------------------
D----2-22222--------2-22222--------------------------------
A-----------2-222222-------3-333333------2-22222-33232(bis)  X2
E----------------------------------3-333333----------------

Bueno esa es toda la kancion Y si tiene
errores traten de korrejierlos es una kancion
muy facil y tambien kiero dedicarle esta kacion
a mi gran amigo koko k esta saliendo adelante kon
su banda ?kadenas rotas? espero k te valla excelente
kompañero tu amigo   Va-k
Suggest correction
Give kudos to tab author, rate the tab!
1 2 3 4 5
comments
print report bad tab
guest
You may want to rate the tab now too:
select rating
Wanna post a correction for this tab? Suggest correction