Oops, an error
Loading. Please wait.

Sus Lágrimas Tab

5 views 1 this week
no commentswrite comment
1 2 3 4 5
3 more votes to show rating
add to favorites
launch autoscroll
font size
0
reset
how to read this tab
guitar tuner
Autoscroll
slow
fast
+/-
esc
set tempo
stop
Help us to improve Ultimate-Guitar.com Take our survey!
×
  ke onda a la gente de estos rumbos.
  ahora les voy a pasar estos tabs. ke estan re faciles,
  pongan ojo y chekon kon el disko:


e------------------------------------------------------------
b------------------------------------------------------------
g------------------------------------------------------------
d---4---2---4---2-2s4-----2---4-2---4s6-4s2------------------
a-4---4---4---4-------4-2---2-----2--------------------------
e------------------------------------------------------------
 esto se repite bdos veces y sigue esto:

e-----------------------------------------------------------
b-----------------------------------------------------------
g-----------4-----------------------------------------------
d-----4-2-----4-2-------------------------------------------
a-0-0-----0-------0-----------------------------------------
e-----------------------------------------------------------
 y luego ya empieza la kancion tokando lo mismo
cruza frente ami, dia a dia igual...............

ya despues sigue el intermedio ke es este:

e-----------------------------------------------------------
b-10-12-12-10-10-9-9----------9-9-10-9----------------------
g-------------------11-11-11--------------------------------
d-----------------------------------------------------------
a-----------------------------------------------------------
e-----------------------------------------------------------

e-----------------------------------------------------------
b-10-12-12-10-10-9-9----------9-9---------------------------
g--------------------11-11-11-----11------------------------
d-----------------------------------------------------------
a-----------------------------------------------------------
e-----------------------------------------------------------

e--------------------------------12-------------------------
b----------9---------------------15 este es octeviado-------
g------8-9---9s11-11-9------9-------------------------------
d-9s11-----------------9s11---11----------------------------
a-----------------------------------------------------------
e-----------------------------------------------------------
   ese 12 y 15 deben de sonar igual tienes ke elevar la 2da kuerda hasta ke te suene
   suene igual.

   esta rola tiene un mensaje bien pesadote, yo se la dediko a todas las chavas ke
   sufren de este tipo enfermedad ke es la anorexia, akuerdenseke solo kon DIOS se
   puede superar el es su amigo fiel y no las va a dejar nunka.
   si tienen dudas o kieren aklaraciones no duden en escribirme.
    chido bandaaaaaaaaaaaaaaa................
Suggest correction
Give kudos to tab author, rate the tab!
1 2 3 4 5
comments
print report bad tab
guest
You may want to rate the tab now too:
select rating
Wanna post a correction for this tab? Suggest correction