Oops, an error
Loading. Please wait.

Discriminación Tab

22 views 1 this week
no commentswrite comment
1 2 3 4 5
3 more votes to show rating
add to favorites
launch autoscroll
font size
0
reset
how to read this tab
guitar tuner
Autoscroll
slow
fast
+/-
esc
set tempo
stop
Esta es una exelente cancion de uno de los
mejores grupos de hardcore del ecuador.

guitarra :
      G5  D5  F5  C5
E-|-----------------------------------------|
B-|-----------------------------------------|
G-|-------777-333-555-----------------------|
D-|---555-777-333-555-----------------------|
A-|---555-555-111-333-----------------------|
E-|---333-----------------------------------|

Discriminación!!!!
     G5     D5
Conflicto violencia
     F5     C5
El perjuicio no cesa
     G5     D5
Te odian por ser blanco
     F5     C5
Te odian por ser negro
     G5     D5
Por que no podemos 
     F5     C5
Mirar mas profundo
     G5     D5
Ver lo que hay dentro 
     F5     C5
          Del corazón

Coro:
   
  G5     D5
Discriminación
  F5     C5
 Por un color
  G5     D5
Discriminación
  F5     C5
Social condición
 
guitarra :
      G5  D5 F5 C5       G5  D5 F5  C5  F5
E-|-------------------------------------------|
B-|-------------------------------------------|
G-|-------7--3---5-----------7--3--555--3-----|
D-|---55--7--3---5-------55--7--3--333--3-----|
A-|---55--5--1---3-------55--5--1--333--1-----|
E-|---33-----------------33-------------------|
  
Este pedazo se canta como rap

  G5    D5 
En tus ojos
  F5    C5
Una apariencia
  G5   D5     F5      C5
Dan claro dato de tu violencia

     

     G5     D5
Conflicto violencia
     F5     C5
El perjuicio no cesa
     G5     D5
Te odian por ser blanco 
     F5     C5
Te odian por ser negro
     G5     D5
Por que no podemos 
     F5    C5
Mirar mas profundo
     G5     D5
Ver lo que hay dentro 
     F5    C5
        Del corazón

G5    D5 
En tus ojos
  F5    C5
Una apariencia
  G5   D5     F5      C5
Dan claro dato de tu violencia
  G5   D5     F5      C5
¿No se dan cuenta que vamos mas...
                                  En involución?


guitarra :
                 
E-|-9-9-9-9-------|
B-|---------------|
G-|---------------|   FONDO 1
D-|---------------|
A-|---------------|
E-|---------------|
 
Este pedazo se canta como rap con el fondo 1

Discriminar crecer ciego en la indiferencia 
Pisotear a tu hermano sin pensar en las consecuencias
Abre tus ojos únete ya
Vamos familia juntemos toda la energía

guitarra :Bastante rapido xxx
    G5   D5 Bb5   B5    A5    G5
E-|---------------------------------|
B-|---------------------------------|
G-|------7----------------------xxx-|
D-|-555--7--8-xxx-9-xxx-7-xxx-5-xxx-|
A-|-555--5--8-xxx-9-xxx-7-xxx-5-xxx-|
E-|-333-----6-xxx-7-xxx-5-xxx-3-xxx-|

guitarra :
     E5           E5              G5  D5  F5  C5
E-|-----------------------------------------------------|
B-|-----------------------------------------------------|
G-|-----------------------------------777-333-555-------|
D-|--222----------222-------------555-777-333-555-------|
A-|--222----------222-------------555-555-111-333-------|
E-|--000--020202--000--020202-----333-------------------|

ahh!!!

guitarra :
      G5  D5  F5  C5
E-|-------------------------10-10-10-666-888---|
B-|---------------------888--------------------|
G-|-------777-333-555--------------------------|
D-|---555-777-333-555--------------------------|
A-|---555-555-111-333--------------------------|
E-|---333--------------------------------------|

discriminación
Suggest correction
Give kudos to tab author, rate the tab!
1 2 3 4 5
comments
print report bad tab
guest
You may want to rate the tab now too:
select rating
Wanna post a correction for this tab? Suggest correction