Oops, an error
Loading. Please wait.

Adiós Juan Pablo Ii Tab

10 views 1 this week
no commentswrite comment
1 2 3 4 5
3 more votes to show rating
add to favorites
×
Save as Personal and add changes to this tab that will be seen only by you. Learn more ›
×
You can save this tab as Personal to edit and correct it or add notes. All changes will be seen only by you. Learn more »
save as personal
new!
launch autoscroll
font size
0
reset
how to read this tab
guitar tuner
Autoscroll
slow
fast
+/-
esc
set tempo
stop
Esta es una gran canción. Gran homenaje a nuestro querido Papa Juan Pablo II.

Saludos desde Perú!!


Intro [punteo: puedes tocar el (1) ó el (2), como prefieras]

(1)
|--------------- -------------- --------------|
|--------------- -------------- --------------|
|-----7~-7-4-4-- -------------- ----4-4-------|
|-3/7----------7 -7-7-4-4------ --------5-4---|
|--------------- ---------7-7-5 --5---------7-|
|--------------- -------------- --------------|

|------------- ------------------|
|------------- ------------------|
|-7-7-6-6-4/6 -4-4-4-------------|
|------------- ------5-4---------|
|------------- ----------7-5-4h5-|
|------------- ------------------|


(2)
|---------------------- -----------------------------|
|-------15~-15-12-12--- -----------------------------|
|--9/14--------------14 -14-14-11-11-----------------|
|---------------------- ------------14-14-12(Riff 1)-|
|---------------------- -----------------------------|
|---------------------- -----------------------------|

|------------------ ------------------- ---------------------------|
|----12~-12-------- --15-15-14-14-12h14 -12-12-12------------------|
|----------12-11--- ------------------- ----------12-11------------|
|-12-------------14 ------------------- ----------------14-12-11-12|
|------------------ ------------------- ---------------------------|
|------------------ ------------------- ---------------------------|

Riff 1:

|----17---------------|
|-------19-17-15------|
|----------------18-16|
|---------------------|
|---------------------|
|---------------------|


Intro: D - A - Bm
 G - Em - A
 Bmm Em - D

       D
Que doblen las campanas
 Bm
a duelo sin parar
  G
a muerto el papa bueno
  A
se fue a la eternidad

D
El mundo no es el mismo
Bm
gracias a tu labor
G
creyente o no creyente
A
a todos diste amor

D            A
Juan Pablo II
Bm
esta llorando el mundo
G              Em
y yo con mi canto
   A
lo quiero consolar

D              A
Juan Pablo II
Bm
México te ama
G                      Em
y aunque le duela el alma
  A
gracias a Dios le da
Bm              Em         D
mil gracias a Dios por tu bondad

D
Los niños, los ancianos
Bm
siempre recordarán
G
tus besos, tus abrazos
A
tu risa, tu mirar

D
Los pobres, los enfermos
Bm
los que no tienen pan
G
te van a echar de menos
A
te vamos a extrañar

D              A
Juan Pablo II
Bm
esta llorando el mundo
G              Em
y yo con mi canto
   A
lo quiero consolar

D              A
Juan Pablo II
Bm
México te ama
G                      Em
y aunque le duela el alma
  A
gracias a Dios le da
Bm              Em         D
mil gracias a Dios por tu bondad


D5   G5      A5    G5       D5
Juan Pablo, Juan Pablo, Juan Pablo
G5         A5
México siempre fiel

D              A
Juan Pablo II
Bm
esta llorando el mundo
G              Em
y yo con mi canto
   A
lo quiero consolar

D              A
Juan Pablo II
Bm
México te ama
G                      Em
y aunque le duela el alma
  A
gracias a Dios le da

(Sólo voz y batería)
Juan Pablo II
esta llorando el mundo
y yo con mi canto
lo quiero consolar
D              A
Juan Pablo II
Bm
México te ama
G                      Em
y aunque le duela el alma
  A
gracias a Dios le da                   x2

Bm              Em         D
mil gracias a Dios por tu bondad
Bm              Em         D
mil gracias a Dios por tu bondad

DESCANSA EN PAZ.
Suggest correction
Give kudos to tab author, rate the tab!
1 2 3 4 5
comments
print report bad tab
guest
Wanna post a correction for this tab? Suggest correction