Oops, an error
Loading. Please wait.

Amémonos De Corazón Tab

29 views 1 this week
no commentswrite comment
1 2 3 4 5
3 more votes to show rating
add to favorites
launch autoscroll
font size
0
reset
how to read this tab
guitar tuner
×
Best way to learn
"Amémonos De Corazón"
Autoscroll
slow
fast
+/-
esc
set tempo
stop
es sacada a oído...

e|---1--0---0-1---0---3-1-0-1-3-5-1-----
B|-1------3-----3-------------------3---
G|--------------------------------------  x2
D|--------------------------------------
A|--------------------------------------
E|--------------------------------------

e|-8-7-5-7-8-5-7--7-5-3-5-7-3-5---
B|--------------------------------
G|--------------------------------
D|--------------------------------
A|--------------------------------
E|--------------------------------

e|-5-3-2-3-5-7-8-7---
B|-------------------
G|-------------------
D|-------------------
A|-------------------
E|-------------------

e|-8-7-5-7-8-5-7--7-5-3-5-7-3-5---
B|--------------------------------
G|--------------------------------
D|--------------------------------
A|--------------------------------
E|--------------------------------

e|-5-3-2-3-5-7-3-0---
B|-------------------
G|-------------------
D|-------------------
A|-------------------
E|-------------------

mi correo: juanda0612@
Suggest correction
Give kudos to tab author, rate the tab!
1 2 3 4 5
comments
print report bad tab
guest
You may want to rate the tab now too:
select rating
Wanna post a correction for this tab? Suggest correction