Oops, an error
Loading. Please wait.

Bautízame Señor Tab

17 views 1 this week
no commentswrite comment
1 2 3 4 5
3 more votes to show rating
add to favorites
launch autoscroll
font size
0
reset
how to read this tab
guitar tuner
Autoscroll
slow
fast
+/-
esc
set tempo
stop
Help us to improve Ultimate-Guitar.com Take our survey!
×
[ch]A saqué A[/ch] oído...

e|---1-1-1-3-4-3-1-3-0-------3-3-3-4-6-4-3-8-4-1--
B|-1-------------------1---1----------------------
G|------------------------------------------------  x2
D|------------------------------------------------
A|------------------------------------------------
E|------------------------------------------------

e|-7-8-7-5-7-8--5-7-5-3-5-7---
B|----------------------------
G|----------------------------
D|----------------------------
A|----------------------------
E|----------------------------

e|-3-5-3-2-3-5--8-7----
B|---------------------
G|---------------------
D|---------------------
A|---------------------
E|---------------------


e|-7-8-7-5-7-8--5-7-5-3-5-7---
B|----------------------------
G|----------------------------
D|----------------------------
A|----------------------------
E|----------------------------

e|-3-5-3-2-3-5--7-0----
B|---------------------
G|---------------------
D|---------------------
A|---------------------
E|---------------------

mi correo: juanda0612@
Suggest correction
Give kudos to tab author, rate the tab!
1 2 3 4 5
comments
print report bad tab
guest
You may want to rate the tab now too:
select rating
Wanna post a correction for this tab? Suggest correction