Oops, an error
Loading. Please wait.

Cuando Los Reyes Bass Tab

30 views 1 this week
no commentswrite comment
1 2 3 4 5
3 more votes to show rating
add to favorites
launch autoscroll
font size
0
reset
guitar tuner
Autoscroll
slow
fast
+/-
esc
set tempo
stop
Help us to improve Ultimate-Guitar.com Take our survey!
×
   Bueno amigos, este es mi primer aporte. Les doy las tablaturas para
bajo de la canción "Cuando los Reyes"

Introducción x1:

1G|------------------------------------------------------------------|
2D|-----------3------3-5--------3------3-5---------------------------|
3G|-------3-------3---------3-------3--------------------------------|
4E|------------------------------------------------------------------|

"Cuando los reyes, vieron al niño..."

1G|------------------------------------------------------------------|
2D|-----------3------3-5---------------------------------------------|
3G|-------3-------3---------3---7---5-3-2----------------------------|
4E|---------------------------------------3--------------------------|

"Se confirmó, la tradición más fiel..."

1G|------------------------------------------------------------------|
2D|-----------3------3-5-----------3-5~------------------------------|
3G|-------3-------3---------3---3------------------------------------|
4E|------------------------------------------------------------------|

"Cuando los reyes, vieron al niño..."

1G|------------------------------------------------------------------|
2D|-----------2-2-3-3-4-5------2-2-3-3-4-5---------------------------|
3G|-13/3--3-3--------------3-3---------------------------------------|
4E|------------------------------------------------------------------|

1G|------------------------------------------------------------------|
2D|-------------2---2-5/7-5--5----5-3--------------------------------|
3G|-------3---3---3-------------3-----7-5-3~-------------------------|
4E|------------------------------------------------------------------|

1G|------------------------------------------------------------------|
2D|--------2-3-4-5-------2-3-4-5-------2----2-5/7-5--5----5-3--------|
3G|------3---------3~--3---------3~--3---3--------------3-----7-5----|
4E|------------------------------------------------------------------|

"Dios del cielo que hiciste la mañana..."

1G|------------------------------------------------------------------|
2D|-----------3---5---7~-----3-3-5-5---------------------------------|
3G|------5~-5---5---5-----5------------------------------------------|
4E|------------------------------------------------------------------|

1G|------------------------------------------------------------------|
2D|-----------2---3---5~-----2-2-3-3---------------------------------|
3G|------3~-3---3---3-----3------------------------------------------|
4E|------------------------------------------------------------------|

1G|------------------------------------------------------------------|
2D|-----------3---5---7~-----3-3-5-5--3--3--3-3--5~------------------|
3G|------5~-5---5---5-----5------------------------------------------|
4E|------------------------------------------------------------------|

"Cuando los reyes, vieron al niño..."

1G|------------------------------------------------------------------|
2D|-----------2-2-3-3-4-5------2-2-3-3-4-5---------------------------|
3G|-13/3--3-3--------------3-3---------------------------------------|
4E|------------------------------------------------------------------|

1G|------------------------------------------------------------------|
2D|-------------2---2-5/7-5--5----5-3--------------------------------|
3G|-------3---3---3-------------3-----7-5-3~-------------------------|
4E|------------------------------------------------------------------|

1G|------------------------------------------------------------------|
2D|--------2-3-4-5-------2-3-4-5-------2---2-5/7-5--5~---------------|
3G|------3---------3~--3---------3~--3---3---------------------------|
4E|------------------------------------------------------------------|

"Dan don, dan din don" (x3)

1G|-------------------------3-5~/0-----------------------------------|
2D|---------------------3/5------------------------------------------|
3G|------------------------------------------------------------------|
4E|------------------------------------------------------------------|

"Ya las campanas,tocan la fiesta..."

1G|------------------------------------------------------------------|
2D|-----------3---5---7~-----3-3-5-5---------------------------------|
3G|------5~-5---5---5-----5------------------------------------------|
4E|------------------------------------------------------------------|

1G|------------------------------------------------------------------|
2D|-----------2---3---5~-----2-2-3-3---------------------------------|
3G|------3~-3---3---3-----3------------------------------------------|
4E|------------------------------------------------------------------|

1G|------------------------------------------------------------------|
2D|-----------3---5---7~-----3-3-5-5--3--3--3-3--5~------------------|
3G|------5~-5---5---5-----5------------------------------------------|
4E|------------------------------------------------------------------|

"Dios del cielo, señor del universo..."

1G|------------------------------------------------------------------|
2D|-----------3---5---7~-----3-3-5-5---------------------------------|
3G|------5~-5---5---5-----5------------------------------------------|
4E|------------------------------------------------------------------|

1G|------------------------------------------------------------------|
2D|-----------2---3---5~-----2-2-3-3---------------------------------|
3G|------3~-3---3---3-----3------------------------------------------|
4E|------------------------------------------------------------------|

1G|------------------------------------------------------------------|
2D|-----------3---5---7~-----3-3-5-5--3--3--3-3--5~------------------|
3G|------5~-5---5---5-----5------------------------------------------|
4E|------------------------------------------------------------------|

"Cuando los reyes, vieron al niño..."

1G|------------------------------------------------------------------|
2D|-----------2-2-3-3-4-5------2-2-3-3-4-5---------------------------|
3G|-13/3--3-3--------------3-3---------------------------------------|
4E|------------------------------------------------------------------|

1G|------------------------------------------------------------------|
2D|-------------2---2-5/7-5--5----5-3--------------------------------|
3G|-------3---3---3-------------3-----7-5-3~-------------------------|
4E|------------------------------------------------------------------|

1G|------------------------------------------------------------------|
2D|--------2-3-4-5-------2-3-4-5-------2---2-5/7-5--5~---------------|
3G|------3---------3~--3---------3~--3---3---------------------------|
4E|------------------------------------------------------------------|

"Dan don, dan din don" (x2)

1G|-------------------------3-5~/0-----------------------------------|
2D|---------------------3/5------------------------------------------|
3G|------------------------------------------------------------------|
4E|------------------------------------------------------------------|

"Ya las campanas,tocan la fiesta..."

1G|------------------------------------------------------------------|
2D|-----------3---5---7~-----3-3-5-5---------------------------------|
3G|------5~-5---5---5-----5------------------------------------------|
4E|------------------------------------------------------------------|

1G|------------------------------------------------------------------|
2D|-----------2---3---5~-----2-2-3-3---------------------------------|
3G|------3~-3---3---3-----3------------------------------------------|
4E|------------------------------------------------------------------|

1G|------------------------------------------------------------------|
2D|-----------3---5---7~-----3-3-5-5--3--3--3-3--5~------------------|
3G|------5~-5---5---5-----5------------------------------------------|
4E|------------------------------------------------------------------|

"Cuando los reyes..." (Aquí acaba el bajo pero se puede optar por
seguir tocándolo mientras se acaba la canción, en este caso sólo
siguen tocando las tres últimas tablaturas).

                                                Mitcality
Suggest correction
Give kudos to tab author, rate the tab!
1 2 3 4 5
comments
print report bad tab
guest
You may want to rate the tab now too:
select rating
Wanna post a correction for this tab? Suggest correction