Oops, an error
Loading. Please wait.

El Amor De Dios Es Maravilloso Tab

114 views 1 this week
no commentswrite comment
1 2 3 4 5
3 more votes to show rating
add to favorites
launch autoscroll
font size
0
reset
how to read this tab
guitar tuner
Autoscroll
slow
fast
+/-
esc
set tempo
stop
ahí la tienen, la saqué a oído así
que no está perfecta, pero ustedes
la pueden mejorar

  El amor de Dios es maravilloso
e|-3-1-0--0---0--0---0-3-3-1-----
B|----------3------3-------------
G|-------------------------------
D|-------------------------------
A|-------------------------------
E|-------------------------------

  el amor de Dios es maravilloso
e|-1-0-----------------1-1-0-----
B|-----3--3-1-3--3-1-3-----------
G|-------------------------------
D|-------------------------------
A|-------------------------------
E|-------------------------------

  el amor de Dios es maravilloso
e|-3-1-0--0---0--0---0-3-3-1-----
B|----------3------3-------------
G|-------------------------------
D|-------------------------------
A|-------------------------------
E|-------------------------------

grande es el amor de Dios.
e|-----3-3-3-1-0---------
B|---------------3-1-----
G|-----------------------
D|-----------------------
A|-----------------------
E|-----------------------


  Tan grande que no puedo estar arriba de él
e|-3---0--0---0--0---0-0----0--0--3-1---0h1---
B|--------------------------------------------
G|--------------------------------------------
D|--------------------------------------------
A|--------------------------------------------
E|--------------------------------------------

  tan bajo que no puedo estar debajo de él
e|-1----------------------------1-0---------
B|----3-3---3--3---3-3---3---3--------3/5---
G|------------------------------------------
D|------------------------------------------
A|------------------------------------------
E|------------------------------------------

  tan ancho que no puedo estar afuera de él
e|-3--0--0---0--0---0-0----0--0--3-1---0h1---
B|--------------------------------------------
G|--------------------------------------------
D|--------------------------------------------
A|--------------------------------------------
E|--------------------------------------------

grande es el amor de Dios.
e|-----3-3-3-1-0---------
B|---------------3-1-----
G|-----------------------
D|-----------------------
A|-----------------------
E|-----------------------

ojalá les guste...
mi correo: juanda0612@
Suggest correction
Give kudos to tab author, rate the tab!
1 2 3 4 5
comments
print report bad tab
guest
Wanna post a correction for this tab? Suggest correction