Oops, an error
Loading. Please wait.

Jesús Te Seguiré Tab

11 views 1 this week
no commentswrite comment
1 2 3 4 5
3 more votes to show rating
add to favorites
launch autoscroll
font size
0
reset
how to read this tab
guitar tuner
Autoscroll
slow
fast
+/-
esc
set tempo
stop
Help us to improve Ultimate-Guitar.com Take our survey!
×
Jesus te seguire, donde me lleves ire

1|-2-5--3-2-0---||----3-2-0-----------|
2|------------3-||0-3-------3-5-------|
3|--------------||--------------------|

muestrame ese lugar donde vives

1|----2-3-2--------------------|
2|-3-5------5-3-5-7-0----------|
3|-----------------------------|

quiero quedarme contigo alli

1|----3-2-0-----------------|
2|-0-3------3-5-7-5---------|
3|--------------------------|

escuchando tus palabras algo nuevo nacio en mi

1|-------------------------------------------|
2|-3-2-0-------------------------------------|
3|-------2-4--6-7-4--7--11--9--7-6---2--4----|

hace tiempo que sediento habia querido amar asi

1|-------------------------------------------|
2|-3-2-0-------------------------------------|
3|-------2-4--6-7-4--7--11--9--7-6---2--4----|

ahora veo claro la verdad esta en ti ¡aleluya gloria al señor!

1|------------------------------------------------------------|
2|-7-7-8-7-5-3---8--7--5--8--10---12-10-12-10~ -12-10-12-10~ -|
3|------------------------------------------------------------|

Jesus te seguire, donde me lleves ire

1|-2-5--3-2-0---||----3-2-0-----------|
2|------------3-||0-3-------3-5-------|
3|--------------||--------------------|

muestrame ese lugar donde vives

1|----2-3-2--------------------|
2|-3-5------5-3-5-7-0----------|
3|-----------------------------|

quiero quedarme contigo alli

1|----3-2-0-----------------|
2|-0-3------3-5-7-5---------|
3|--------------------------|

hoy he visto como se aman los que viven junto a ti

hace tiempo que sediento habia querido amar asi

ahora siento que tu amor viene hacia aqui

Aleluya, Gloria al Señor!


Jesus te seguire, donde me lleves ire

muestrame ese lugar donde vives

quiero quedarme contigo alli


Hoy he visto a los leprosos sanos y a los ciegos ver

hasta el pan multiplicarse para darnos de comer

OH maestro mio todo lo haces bien

!Aleluya, Gloria al Señor!!!

Jesus te seguire, donde me lleves ire

muestrame ese lugar donde vives

quiero quedarme contigo alli

contigo alli...

1|-------------|
2|-0/3-5-7-3~ -|
3|-------------|

saludos al coro de San Pablo.
Suggest correction
Give kudos to tab author, rate the tab!
1 2 3 4 5
comments
print report bad tab
guest
You may want to rate the tab now too:
select rating
Wanna post a correction for this tab? Suggest correction