Oops, an error
Loading. Please wait.

La Guadalupana Tab

version 2
version 2

Whole song

195 views 1 this week
no commentswrite comment
1 2 3 4 5
3 more votes to show rating
add to favorites
launch autoscroll
font size
0
reset
how to read this tab
guitar tuner
×
Best way to learn
"La Guadalupana"
Autoscroll
slow
fast
+/-
esc
set tempo
stop
Carnalitos aquí les dejo mi primer colaboración, de esta
tradicional canción ?La guadalupana?.
es un tab para mandolina, ya que estuve buscando en línea
y no encontré ninguna para este instrumento
ojala les agrade.
se aceptan correcciones y criticas,
si existe algún error disculpen es mi primer trabajo y fue a oído.

e:----------------------------------------------
a:-----0-4-2-0-4-2-0-----------0-4-2-0-4-2-0----
D:-0-0---------------0-----0-0---------------0--
G:----------------------------------------------

e:---------------------------------------------------
a:-4-4-4-7-5-5--2-2-2-5-4-4--0-0-0-4-2-2-0-2-4-4-0---
D:----------------------------------------------------
G:----------------------------------------------------

e:---------------------------------------------------
a:-4-4-4-7-5-5--2-2-2-5-4-4--0-0-0-4-2-2-0-2-4-4-0---
D:----------------------------------------------------
G:----------------------------------------------------
Suggest correction
Give kudos to tab author, rate the tab!
1 2 3 4 5
comments
print report bad tab
guest
You may want to rate the tab now too:
select rating
Wanna post a correction for this tab? Suggest correction