Oops, an error
Loading. Please wait.

María La Blanca Paloma Tab

343 views 1 this week
no commentswrite comment
1 2 3 4 5
3 more votes to show rating
add to favorites
launch autoscroll
font size
0
reset
how to read this tab
guitar tuner
Autoscroll
slow
fast
+/-
esc
set tempo
stop
Help us to improve Ultimate-Guitar.com Take our survey!
×
Esta es mi primera transcripcion esta en escala de Do Mayor

Escala Do Mayor

    [ch]C [ch]D [ch]E [ch]F SOL[/ch] LA[/ch]  SI[/ch]  DO[/ch]
    C  D  E  F  G   A   B   C
E||-0--1--3--5--7---8--10--12----------------------|
B||-1--3--5--6--8--10--12--13----------------------|

Transcripción

       [ch]C                      DO[/ch]
E||-----0--3-1-0--3-1-0--0------0--3-1-0--3-1-0--0-|
B||-----1--5-3-1--5-3-1--1------1--5-3-1--5-3-1--1-|
G||-0-0---------------------0-0--------------------|
D||------------------------------------------------|
A||------------------------------------------------|
E||------------------------------------------------|


     [ch]C7     [ch]F     [ch]G7    DO     LA7[/ch]     [ch]Dm[/ch]    SOL7[/ch]  DO[/ch]

E||--3-3-3-7-5-5-5--1-1-1-5-3-3-3--0-0-0-3-1-1-1-1-3--1-0--|
B||--5-5-5-8-6-6-6--3-3-3-6-5-5-5--1-1-1-5-3-3-3-3-5--3-1--|
G||--------------------------------------------------------|
D||--------------------------------------------------------|
A||--------------------------------------------------------|
E||--------------------------------------------------------|

     [ch]C7     [ch]F     [ch]G7    DO     LA7[/ch]     [ch]Dm[/ch]    SOL7[/ch]  DO[/ch]

E||--3-3-3-7-5-5-5--1-1-1-5-3-3-3--0-0-0-3-1-1-1-1-3--1-0--|
B||--5-5-5-8-6-6-6--3-3-3-6-5-5-5--1-1-1-5-3-3-3-3-5--3-1--|
G||--------------------------------------------------------|
D||--------------------------------------------------------|
A||--------------------------------------------------------|
E||--------------------------------------------------------|


 [ch]C          [ch]G7[/ch]      DO[/ch]
es maria la blanca paloma x2

 [ch]C7              FA[/ch]
que ha venido a america
 [ch]G7[/ch]             [ch]C[/ch]
que ha venido a america
 [ch]A7[/ch]              [ch]Dm[/ch]
que ha venido a america
 [ch]G7[/ch]      [ch]C[/ch]
a traer la paz

 el centro de una blanca nube x2
  se vino volando x3
  desde portugal

 eres de gracia oh maria x2
  virgencita blanca x3
  Reina celestial


En toda la cancion se utiliza el mismo circulo de acordes
se escucha muy bonito cuando hay dos guitarras, uno sacando
la melodia y el otro acompañando.

Bien esta fue mi pequeña transcripcion espero que les sea
de mucha utilidad.

dudas o comentarios al correo tuamigoosvaldo@
Suggest correction
Give kudos to tab author, rate the tab!
1 2 3 4 5
comments
print report bad tab
guest
You may want to rate the tab now too:
select rating
Wanna post a correction for this tab? Suggest correction