Oops, an error
Loading. Please wait.

Padre Nuestro Tu Que Tab

17 views 1 this week
no commentswrite comment
1 2 3 4 5
3 more votes to show rating
add to favorites
launch autoscroll
font size
0
reset
how to read this tab
guitar tuner
×
Best way to learn
"Padre Nuestro Tu Que"
Autoscroll
slow
fast
+/-
esc
set tempo
stop
* PADRE NUESTRO TU QUE
ESTAS *

E|--------0-0-------------------| padre nuestro tu que estas
B|----0-0------3----------------|
G|-0-0--------------------------|
D|------------------------------|
A|------------------------------|
E|------------------------------|


E|------------------------------| en los que aman la verdad
B|----0-0--3-3---1--------------|
G|-0-0--------------------------|
D|------------------------------|
A|------------------------------|
E|------------------------------|


E|-----0-0--3-3--5---5-3--------| has que el reino que nos prometió
B|-1-1--------------------------|
G|------------------------------|
D|------------------------------|
A|------------------------------|
E|------------------------------|

E|-----0-0--3-3--5---5-3--------| llegue pronto a nuestro corazón
B|-1-1--------------------------|
G|------------------------------|
D|------------------------------|
A|------------------------------|
E|------------------------------|


E|----5--5-7-8--8-7-5-3--5-3-0--| el amor que tu hijo nos dejo el amor
B|-1-1--------------------------|
G|------------------------------|
D|------------------------------|
A|------------------------------|
E|------------------------------|


E|-----3------------------------|reine ya en nosotros
B|-1-1----0-0--1----------------|
G|--------------2---------------|
D|------------------------------|
A|------------------------------|
E|------------------------------|


Después de rezar el PADRE NUESTRO

E|--------0-0-------------------| en el pan de la unida
B|----0-0------3----------------|
G|-0-0--------------------------|
D|------------------------------|
A|------------------------------|
E|------------------------------|


E|------------------------------| señor danos tu la paz
B|----0-0--3-3---1--------------|
G|-0-0--------------------------|
D|------------------------------|
A|------------------------------|
E|------------------------------|


E|-----0-0--3-3--5---5-3--------| y olvídate de nuestro mal
B|-1-1--------------------------|
G|------------------------------|
D|------------------------------|
A|------------------------------|
E|------------------------------|

E|-----0-0--3-3--5---5-3--------| si olvidamos el de los demás
B|-1-1--------------------------|
G|------------------------------|
D|------------------------------|
A|------------------------------|
E|------------------------------|


E|----5--5-7-8--8-7-5-3--5-3-0--|no permitas que caigamos en tentación
B|-1-1--------------------------| Ho! señor
G|------------------------------|
D|------------------------------|
A|------------------------------|
E|------------------------------|


E|-----3------------------------|y ten piedad de nosotros
B|-1-1----0-0--1----------------|
G|--------------2---------------|
D|------------------------------|
A|------------------------------|
E|------------------------------|


E|----0-3------------------------|y ten piedad del mundo
B|-1-1----0-0--1----------------|
G|--------------2---------------|
D|------------------------------|
A|------------------------------|
E|------------------------------|


Y recuerda que dios no elige a los preparados ¡!!!
Dios prepara a los elegidos ¡!!!!
Suggest correction
Give kudos to tab author, rate the tab!
1 2 3 4 5
comments
print report bad tab
guest
You may want to rate the tab now too:
select rating
Wanna post a correction for this tab? Suggest correction