Oops, an error
Loading. Please wait.

Pescador De Hombres Tab

version 2
version 2

Whole song

64 views 1 this week
no commentswrite comment
1 2 3 4 5
1 last vote to show rating
add to favorites
launch autoscroll
font size
0
reset
how to read this tab
guitar tuner
×
Best way to learn
"Pescador De Hombres"
Autoscroll
slow
fast
+/-
esc
set tempo
stop
Esta es la tablatura y suena muy bien si se toca el canto en RE

  Tu, has venido a la orilla
e --2--0--2--3--2--0------------
B --------------------3-3-------
G ------------------------------

  no has Buscado ni a sabios ni a ricos
e ----2--3-3--3-3-2-3------------
B -2------------------5---------
G ------------------------------

  Tan solo quieres que yo te sigua
e ----------2--2---2--3---------
B -0--3--5---------------5--3--3
G ------------------------------

  SEÑOR ME HAS MIRADO A LOS OJOS SONRIENDO HAS DICHO MI NOMBRE
e ----7--7-9-10-9-7-5--5----5--3--3---5--7--5--3--3s5--5-
B -3----------------------------------------------------
G ------------------------------------------------------

  EN LA ARENA HE DEJADO MI BARCA JUNTO A TI  BUSCARE OTRO MAR
e -----7-7--7-9-10-9-7-5--5----5--3--3-----0-2-3-2-0------
B -3-5-----------------------------------------------2----
G --------------------------------------------------------

Comenten y Gracias.
Dios los Bendiga.
Suggest correction
Give kudos to tab author, rate the tab!
1 2 3 4 5
comments
print report bad tab
guest
You may want to rate the tab now too:
select rating
Wanna post a correction for this tab? Suggest correction