Oops, an error
Loading. Please wait.

Tú Señor Tab

7 views 1 this week
no commentswrite comment
1 2 3 4 5
3 more votes to show rating
add to favorites
×
Save as Personal and add changes to this tab that will be seen only by you. Learn more ›
×
You can save this tab as Personal to edit and correct it or add notes. All changes will be seen only by you. Learn more »
save as personal
new!
launch autoscroll
font size
0
reset
how to read this tab
guitar tuner
Autoscroll
slow
fast
+/-
esc
set tempo
stop
bueno aqui les mando las tabs de
este cantito
que para mi esta uff
excelente...


             G       D        C       D7       G-G7
G---------------------------------------------------
B------0-1-1/3---3-5-3----5-7-8-8-8-8-7-7-5-5-5/3-3-
e---------------------------------------------------
        C       D7        G   D/F#   Em     C     D7
G---------------------------------------------------
B---5-7-8-8-8-5-10-10---3-3-3-3-3-0-3/5-5-3-1-1-1-5-
e---------------------------------------------------
            G
G-------------
B---3-3-3-1-0-
e-------------

             G       D        C       D7       G-G7
G---------------------------------------------------
B------0-1-1/3---3-5-3----5-7-8-8-8-8-7-7-5-5-5/3-3-
e---------------------------------------------------
        C       D7        G   D/F#   Em     C     D7
G---------------------------------------------------
B---5-7-8-8-8-5-10-10---3-3-3-3-3-0-3/5-5-3-1-1-1-5-
e---------------------------------------------------
           G
G-------------
B---3-3-5-7/8-
e-------------


     G
Tu señor
       D           C             D7           G-G7
sabes bien, lo que yo tengo guardado en mi interior
        C             D7           G    D/F#     Em
todo aquello que me aturde, lo que no puedo explicar
      C            D7       G-G7
esas cosas que no dejan caminar.
(OJO ESTE G7 ES PARA EL SIGUIENTE PARRAFO Y PASAR AL CORO)

Tu señor(TU SEÑOR)
hasta hoy(HASTA HOY), me has seguido en cada paso de mi vida
y me has dado grandes cosas, que no puedo olvidar
los momentos que en mi vida quedaran.

         C          D
POR ESO VEN SEÑOR JESUS
         G    D/F#   Em
QUE TE QUIERO HOY DECIR,
         C            D7
QUE MIS OJOS SE HAN ABIERTO
          G           G7
Y QUE SIN TI NO PUEDO MAS SEGUIR.

C           D
VEN SEÑOR JESUS
           G    D/F#    Em
QUE AHORA TENGO EL CORAZON
         C           D7  (AQUI SE DEJA DE TOCAR)
CON UN GRITO QUE ME PIDE
          C    Cm       G
TUUUU AMOOOOOOOOOOOOOOOOOOOR.
(EN EL Cm SE ALZA UN POCO MAS LA VOZ POR PARTE DE LAS MUJERES)

    D/F#
E---2---
A---0---
D---0---
G---2---
B---3---
e---3---

CUALQUIER DUDA ESCRIBAN A MI CORREO

ivan_aguila_1712@
Suggest correction
Give kudos to tab author, rate the tab!
1 2 3 4 5
comments
print report bad tab
guest
Wanna post a correction for this tab? Suggest correction