Oops, an error
Loading. Please wait.

Venimos Ante Ti Tab

16 views 1 this week
no commentswrite comment
1 2 3 4 5
3 more votes to show rating
add to favorites
launch autoscroll
font size
0
reset
how to read this tab
guitar tuner
×
Best way to learn
"Venimos Ante Ti"
Autoscroll
slow
fast
+/-
esc
set tempo
stop
En esta cancion se empiesa con ritmo y luego te detienes
para empesar con el canto y a la mitad del primer verso
se comiensa de nuevo con el ritmo.

e/--0-0-------0-3-0----------0-0-0-0-----0-3-0--
b/------3-1-3------------------------3-1--------
g/----------------------------------------------


e/--0-0-----0------------------0--------
b/------3-1---3--------3-3-1-3----------
g/--------------------------------------


e/---0-0-1-3-5-5-5-5--------0-1-5-3-1-5-3--
b/-----------------------------------------

e/----3-3-1-0-3-1-----1-1-0-3-1-0-----
b/------------------------------------


e/--0-0-------0-3-0----------
b/------3-1-3----------------
g/---------------------------


(C)          C
Venimos ante ti senor
                 Am
con corazones sinceros
             Dm     G
llenos de alabanza
           C    C7
y de adoracion.

                F           F-F#-G
Por que tu eres rey de reyes
             C      Am
y señor de señores
               Dm  G
solo tu eres digno
                  C
de que todos te adoren.

ESPERO QUE LES GUSTE.
Suggest correction
Give kudos to tab author, rate the tab!
1 2 3 4 5
comments
print report bad tab
guest
You may want to rate the tab now too:
select rating
Wanna post a correction for this tab? Suggest correction