Oops, an error
Loading. Please wait.

Vienen Con Alegria Tab

62 views 1 this week
no commentswrite comment
1 2 3 4 5
3 more votes to show rating
add to favorites
launch autoscroll
font size
0
reset
how to read this tab
guitar tuner
Autoscroll
slow
fast
+/-
esc
set tempo
stop
Help us to improve Ultimate-Guitar.com Take our survey!
×
Hola!!

Esta es mi primera transcripción
La sake a oido.. pero solo el Coro!
Espero les ayude!
Para aquellos que solo quieran puntear pues aqui esta..

Será:


E-------------------------------------------------
B-----------7-7-------------7-7---7-8-10-10-8-7---
G--77---7-9----9-7------7-9-----9-----------------
D-----7---------------7---------------------------
A-------------------------------------------------
E-------------------------------------------------

Vienen con alegria Señor, cantando vienen. con alegría Señor.

E-----------------------------------------------------------
B--12-12-10-12-10----12-10-10-8-7----8-10-10--8-7--5--3-----
G-----------------12----------------------------------------
D-----------------------------------------------------------
A-----------------------------------------------------------
E-----------------------------------------------------------

Los que caminan por la vida Señor, Sembrando tu paz y amor.


Dedikada a la parroquia El Cafetal. ·Transfiguración del Señor·

Y a ti Danix!! Te Amo!! Verdesita!! Alegría tu me das!
Suggest correction
Give kudos to tab author, rate the tab!
1 2 3 4 5
comments
print report bad tab
guest
You may want to rate the tab now too:
select rating
Wanna post a correction for this tab? Suggest correction